  0
SECTION
  2
HEADER
  9
$ACADVER
  1
AC1015
  9
$ACADMAINTVER
 70
     6
  9
$DWGCODEPAGE
  3
ANSI_1254
  9
$INSBASE
 10
0.0
 20
0.0
 30
0.0
  9
$EXTMIN
 10
0.0
 20
0.0
 30
0.0
  9
$EXTMAX
 10
279.4
 20
215.9
 30
0.0
  9
$LIMMIN
 10
0.0
 20
0.0
  9
$LIMMAX
 10
279.4
 20
215.9
  9
$ORTHOMODE
 70
     0
  9
$REGENMODE
 70
     1
  9
$FILLMODE
 70
     1
  9
$QTEXTMODE
 70
     0
  9
$MIRRTEXT
 70
     1
  9
$LTSCALE
 40
1.0
  9
$ATTMODE
 70
     1
  9
$TEXTSIZE
 40
3.5
  9
$TRACEWID
 40
1.0
  9
$TEXTSTYLE
  7
Standard
  9
$CLAYER
  8
0
  9
$CELTYPE
  6
ByLayer
  9
$CECOLOR
 62
   256
  9
$CELTSCALE
 40
1.0
  9
$DISPSILH
 70
     0
  9
$DIMSCALE
 40
1.0
  9
$DIMASZ
 40
3.5
  9
$DIMEXO
 40
1.0
  9
$DIMDLI
 40
3.75
  9
$DIMRND
 40
0.0
  9
$DIMDLE
 40
0.0
  9
$DIMEXE
 40
1.0
  9
$DIMTP
 40
0.0
  9
$DIMTM
 40
0.0
  9
$DIMTXT
 40
3.5
  9
$DIMCEN
 40
2.5
  9
$DIMTSZ
 40
0.0
  9
$DIMTOL
 70
     0
  9
$DIMLIM
 70
     0
  9
$DIMTIH
 70
     1
  9
$DIMTOH
 70
     1
  9
$DIMSE1
 70
     0
  9
$DIMSE2
 70
     0
  9
$DIMTAD
 70
     1
  9
$DIMZIN
 70
     0
  9
$DIMBLK
  1

  9
$DIMASO
 70
     1
  9
$DIMSHO
 70
     1
  9
$DIMPOST
  1

  9
$DIMAPOST
  1

  9
$DIMALT
 70
     0
  9
$DIMALTD
 70
     3
  9
$DIMALTF
 40
0.0393700787
  9
$DIMLFAC
 40
1.0
  9
$DIMTOFL
 70
     1
  9
$DIMTVP
 40
0.0
  9
$DIMTIX
 70
     0
  9
$DIMSOXD
 70
     0
  9
$DIMSAH
 70
     0
  9
$DIMBLK1
  1

  9
$DIMBLK2
  1

  9
$DIMSTYLE
  2
ISO-25
  9
$DIMCLRD
 70
     0
  9
$DIMCLRE
 70
     0
  9
$DIMCLRT
 70
     0
  9
$DIMTFAC
 40
1.0
  9
$DIMGAP
 40
1.524
  9
$DIMJUST
 70
     0
  9
$DIMSD1
 70
     0
  9
$DIMSD2
 70
     0
  9
$DIMTOLJ
 70
     0
  9
$DIMTZIN
 70
     0
  9
$DIMALTZ
 70
     0
  9
$DIMALTTZ
 70
     0
  9
$DIMUPT
 70
     0
  9
$DIMDEC
 70
     2
  9
$DIMTDEC
 70
     2
  9
$DIMALTU
 70
     2
  9
$DIMALTTD
 70
     3
  9
$DIMTXSTY
  7
Standard
  9
$DIMAUNIT
 70
     0
  9
$DIMADEC
 70
     2
  9
$DIMALTRND
 40
0.0
  9
$DIMAZIN
 70
     0
  9
$DIMDSEP
 70
    44
  9
$DIMATFIT
 70
     3
  9
$DIMFRAC
 70
     0
  9
$DIMLDRBLK
  1

  9
$DIMLUNIT
 70
     2
  9
$DIMLWD
 70
    -2
  9
$DIMLWE
 70
    -2
  9
$DIMTMOVE
 70
     0
  9
$LUNITS
 70
     2
  9
$LUPREC
 70
     2
  9
$SKETCHINC
 40
1.0
  9
$FILLETRAD
 40
10.0
  9
$AUNITS
 70
     0
  9
$AUPREC
 70
     2
  9
$MENU
  1
.
  9
$ELEVATION
 40
0.0
  9
$PELEVATION
 40
0.0
  9
$THICKNESS
 40
0.0
  9
$LIMCHECK
 70
     0
  9
$CHAMFERA
 40
0.0
  9
$CHAMFERB
 40
0.0
  9
$CHAMFERC
 40
0.0
  9
$CHAMFERD
 40
0.0
  9
$SKPOLY
 70
     0
  9
$TDCREATE
 40
2459935.70916081
  9
$TDUCREATE
 40
2459935.58416081
  9
$TDUPDATE
 40
2459935.709160995
  9
$TDUUPDATE
 40
2459935.584160995
  9
$TDINDWG
 40
0.0000000116
  9
$TDUSRTIMER
 40
0.0000000116
  9
$USRTIMER
 70
     1
  9
$ANGBASE
 50
0.0
  9
$ANGDIR
 70
     0
  9
$PDMODE
 70
     0
  9
$PDSIZE
 40
-1.0
  9
$PLINEWID
 40
0.0
  9
$SPLFRAME
 70
     0
  9
$SPLINETYPE
 70
     6
  9
$SPLINESEGS
 70
     8
  9
$HANDSEED
  5
14B
  9
$SURFTAB1
 70
     6
  9
$SURFTAB2
 70
     6
  9
$SURFTYPE
 70
     6
  9
$SURFU
 70
     6
  9
$SURFV
 70
     6
  9
$UCSBASE
  2

  9
$UCSNAME
  2

  9
$UCSORG
 10
0.0
 20
0.0
 30
0.0
  9
$UCSXDIR
 10
1.0
 20
0.0
 30
0.0
  9
$UCSYDIR
 10
0.0
 20
1.0
 30
0.0
  9
$UCSORTHOREF
  2

  9
$UCSORTHOVIEW
 70
     0
  9
$UCSORGTOP
 10
0.0
 20
0.0
 30
0.0
  9
$UCSORGBOTTOM
 10
0.0
 20
0.0
 30
0.0
  9
$UCSORGLEFT
 10
0.0
 20
0.0
 30
0.0
  9
$UCSORGRIGHT
 10
0.0
 20
0.0
 30
0.0
  9
$UCSORGFRONT
 10
0.0
 20
0.0
 30
0.0
  9
$UCSORGBACK
 10
0.0
 20
0.0
 30
0.0
  9
$PUCSBASE
  2

  9
$PUCSNAME
  2

  9
$PUCSORG
 10
0.0
 20
0.0
 30
0.0
  9
$PUCSXDIR
 10
1.0
 20
0.0
 30
0.0
  9
$PUCSYDIR
 10
0.0
 20
1.0
 30
0.0
  9
$PUCSORTHOREF
  2

  9
$PUCSORTHOVIEW
 70
     0
  9
$PUCSORGTOP
 10
0.0
 20
0.0
 30
0.0
  9
$PUCSORGBOTTOM
 10
0.0
 20
0.0
 30
0.0
  9
$PUCSORGLEFT
 10
0.0
 20
0.0
 30
0.0
  9
$PUCSORGRIGHT
 10
0.0
 20
0.0
 30
0.0
  9
$PUCSORGFRONT
 10
0.0
 20
0.0
 30
0.0
  9
$PUCSORGBACK
 10
0.0
 20
0.0
 30
0.0
  9
$USERI1
 70
     0
  9
$USERI2
 70
     0
  9
$USERI3
 70
     0
  9
$USERI4
 70
     0
  9
$USERI5
 70
     0
  9
$USERR1
 40
0.0
  9
$USERR2
 40
0.0
  9
$USERR3
 40
0.0
  9
$USERR4
 40
0.0
  9
$USERR5
 40
0.0
  9
$WORLDVIEW
 70
     1
  9
$SHADEDGE
 70
     3
  9
$SHADEDIF
 70
    70
  9
$TILEMODE
 70
     1
  9
$MAXACTVP
 70
    64
  9
$PINSBASE
 10
0.0
 20
0.0
 30
0.0
  9
$PLIMCHECK
 70
     0
  9
$PEXTMIN
 10
1.0000000000E+20
 20
1.0000000000E+20
 30
1.0000000000E+20
  9
$PEXTMAX
 10
-1.0000000000E+20
 20
-1.0000000000E+20
 30
-1.0000000000E+20
  9
$PLIMMIN
 10
0.0
 20
0.0
  9
$PLIMMAX
 10
420.0
 20
297.0
  9
$UNITMODE
 70
     0
  9
$VISRETAIN
 70
     1
  9
$PLINEGEN
 70
     0
  9
$PSLTSCALE
 70
     1
  9
$TREEDEPTH
 70
  3020
  9
$CMLSTYLE
  2
Standard
  9
$CMLJUST
 70
     0
  9
$CMLSCALE
 40
20.0
  9
$PROXYGRAPHICS
 70
     1
  9
$MEASUREMENT
 70
     1
  9
$CELWEIGHT
370
    -1
  9
$ENDCAPS
280
     0
  9
$JOINSTYLE
280
     0
  9
$LWDISPLAY
290
     1
  9
$INSUNITS
 70
     4
  9
$HYPERLINKBASE
  1

  9
$STYLESHEET
  1

  9
$XEDIT
290
     1
  9
$CEPSNTYPE
380
     0
  9
$PSTYLEMODE
290
     1
  9
$FINGERPRINTGUID
  2
{c79e331e-b865-4f54-8581-5907ba1012af}
  9
$VERSIONGUID
  2
{FAEB1C32-E019-11D5-929B-00C0DF256EC4}
  9
$EXTNAMES
290
     1
  9
$PSVPSCALE
 40
0.0
  9
$OLESTARTUP
290
     0
  0
ENDSEC
  0
SECTION
  2
CLASSES
  0
CLASS
  1
ACDBDICTIONARYWDFLT
  2
AcDbDictionaryWithDefault
  3
ObjectDBX Classes
 90
        0
280
     0
281
     0
  0
CLASS
  1
VISUALSTYLE
  2
AcDbVisualStyle
  3
ObjectDBX Classes
 90
     4095
280
     0
281
     0
  0
CLASS
  1
MATERIAL
  2
AcDbMaterial
  3
ObjectDBX Classes
 90
     1153
280
     0
281
     0
  0
CLASS
  1
SCALE
  2
AcDbScale
  3
ObjectDBX Classes
 90
     1153
280
     0
281
     0
  0
CLASS
  1
TABLESTYLE
  2
AcDbTableStyle
  3
ObjectDBX Classes
 90
     4095
280
     0
281
     0
  0
CLASS
  1
MLEADERSTYLE
  2
AcDbMLeaderStyle
  3
ACDB_MLEADERSTYLE_CLASS
 90
     4095
280
     0
281
     0
  0
CLASS
  1
SUN
  2
AcDbSun
  3
SCENEOE
 90
     1153
280
     0
281
     0
  0
CLASS
  1
ACDBPLACEHOLDER
  2
AcDbPlaceHolder
  3
ObjectDBX Classes
 90
        0
280
     0
281
     0
  0
CLASS
  1
LAYOUT
  2
AcDbLayout
  3
ObjectDBX Classes
 90
        0
280
     0
281
     0
  0
ENDSEC
  0
SECTION
  2
TABLES
  0
TABLE
  2
VPORT
  5
8
330
0
100
AcDbSymbolTable
 70
     1
  0
VPORT
  5
29
330
8
100
AcDbSymbolTableRecord
100
AcDbViewportTableRecord
  2
*Active
 70
     0
 10
0.0
 20
0.0
 11
1.0
 21
1.0
 12
139.7
 22
107.95
 13
0.0
 23
0.0
 14
10.0
 24
10.0
 15
10.0
 25
10.0
 16
0.0
 26
0.0
 36
1.0
 17
0.0
 27
0.0
 37
0.0
 40
215.9
 41
1.2941176471
 42
50.0
 43
0.0
 44
0.0
 50
0.0
 51
0.0
 71
     0
 72
  2000
 73
     1
 74
     3
 75
     0
 76
     0
 77
     0
 78
     0
281
     0
 65
     1
110
0.0
120
0.0
130
0.0
111
1.0
121
0.0
131
0.0
112
0.0
122
1.0
132
0.0
 79
     0
146
0.0
  0
ENDTAB
  0
TABLE
  2
LTYPE
  5
5
330
0
100
AcDbSymbolTable
 70
     6
  0
LTYPE
  5
14
330
5
100
AcDbSymbolTableRecord
100
AcDbLinetypeTableRecord
  2
ByBlock
 70
     0
  3

 72
    65
 73
     0
 40
0.0
  0
LTYPE
  5
15
330
5
100
AcDbSymbolTableRecord
100
AcDbLinetypeTableRecord
  2
ByLayer
 70
     0
  3

 72
    65
 73
     0
 40
0.0
  0
LTYPE
  5
16
330
5
100
AcDbSymbolTableRecord
100
AcDbLinetypeTableRecord
  2
Continuous
 70
     0
  3
Solid line
 72
    65
 73
     0
 40
0.0
  0
LTYPE
  5
6E
330
5
100
AcDbSymbolTableRecord
100
AcDbLinetypeTableRecord
  2
HIDDEN
 70
     0
  3
Hidden __ __ __ __ __ __ __ __ __ __ __ __ __ __
 72
    65
 73
     2
 40
1.905
 49
1.27
 74
     0
 49
-0.635
 74
     0
  0
LTYPE
  5
6F
330
5
100
AcDbSymbolTableRecord
100
AcDbLinetypeTableRecord
  2
PHANTOM
 70
     0
  3
Phantom ______  __  __  ______  __  __  ______
 72
    65
 73
     6
 40
12.7
 49
6.35
 74
     0
 49
-1.27
 74
     0
 49
1.27
 74
     0
 49
-1.27
 74
     0
 49
1.27
 74
     0
 49
-1.27
 74
     0
  0
LTYPE
  5
70
330
5
100
AcDbSymbolTableRecord
100
AcDbLinetypeTableRecord
  2
CENTER
 70
     0
  3
Center ____ _ ____ _ ____ _ ____ _ ____ _ ____
 72
    65
 73
     4
 40
10.16
 49
6.35
 74
     0
 49
-1.27
 74
     0
 49
1.27
 74
     0
 49
-1.27
 74
     0
  0
LTYPE
  5
71
330
5
100
AcDbSymbolTableRecord
100
AcDbLinetypeTableRecord
  2
CENTERX2
 70
     0
  3
Center (2x) ________  __  ________  __  _____
 72
    65
 73
     4
 40
20.32
 49
12.7
 74
     0
 49
-2.54
 74
     0
 49
2.54
 74
     0
 49
-2.54
 74
     0
  0
LTYPE
  5
72
330
5
100
AcDbSymbolTableRecord
100
AcDbLinetypeTableRecord
  2
DOT2
 70
     0
  3
Dot (.5x) ........................................
 72
    65
 73
     2
 40
0.635
 49
0.0
 74
     0
 49
-0.635
 74
     0
  0
ENDTAB
  0
TABLE
  2
LAYER
  5
2
330
0
100
AcDbSymbolTable
 70
    17
  0
LAYER
  5
10
330
2
100
AcDbSymbolTableRecord
100
AcDbLayerTableRecord
  2
0
 70
     0
 62
     7
  6
Continuous
370
    -3
390
F
  0
LAYER
  5
73
330
2
100
AcDbSymbolTableRecord
100
AcDbLayerTableRecord
  2
FORMAT
 70
     0
 62
     7
  6
Continuous
370
    -3
390
F
  0
LAYER
  5
74
330
2
100
AcDbSymbolTableRecord
100
AcDbLayerTableRecord
  2
YARDIMCI_GEOMETRI
 70
     0
 62
    -6
  6
Continuous
290
     0
370
    -3
390
F
  0
LAYER
  5
75
330
2
100
AcDbSymbolTableRecord
100
AcDbLayerTableRecord
  2
SAYFA_CERCEVESI
 70
     0
 62
     7
  6
Continuous
370
    25
390
F
  0
LAYER
  5
76
330
2
100
AcDbSymbolTableRecord
100
AcDbLayerTableRecord
  2
ANTET
 70
     0
 62
     7
  6
Continuous
370
    -3
390
F
  0
LAYER
  5
77
330
2
100
AcDbSymbolTableRecord
100
AcDbLayerTableRecord
  2
OLCU
 70
     0
 62
   150
  6
Continuous
370
    -3
390
F
  0
LAYER
  5
78
330
2
100
AcDbSymbolTableRecord
100
AcDbLayerTableRecord
  2
METIN
 70
     0
 62
    96
  6
Continuous
370
    -3
390
F
  0
LAYER
  5
79
330
2
100
AcDbSymbolTableRecord
100
AcDbLayerTableRecord
  2
BALON
 70
     0
 62
     5
  6
Continuous
370
    -3
390
F
  0
LAYER
  5
7A
330
2
100
AcDbSymbolTableRecord
100
AcDbLayerTableRecord
  2
VURGU
 70
     0
 62
     7
  6
Continuous
370
    -3
390
F
  0
LAYER
  5
7B
330
2
100
AcDbSymbolTableRecord
100
AcDbLayerTableRecord
  2
SILIK
 70
     0
 62
     7
  6
Continuous
370
    -3
390
F
  0
LAYER
  5
7C
330
2
100
AcDbSymbolTableRecord
100
AcDbLayerTableRecord
  2
MODEL
 70
     0
 62
     7
  6
Continuous
370
    -3
390
F
  0
LAYER
  5
7D
330
2
100
AcDbSymbolTableRecord
100
AcDbLayerTableRecord
  2
DETAYLANDıRMA
 70
     0
 62
   190
  6
Continuous
370
    -3
390
F
  0
LAYER
  5
7E
330
2
100
AcDbSymbolTableRecord
100
AcDbLayerTableRecord
  2
TOLERANS
 70
     0
 62
   230
  6
Continuous
370
    -3
390
F
  0
LAYER
  5
7F
330
2
100
AcDbSymbolTableRecord
100
AcDbLayerTableRecord
  2
MERKEZ_CIZGILERI
 70
     0
 62
    30
  6
Continuous
370
    -3
390
F
  0
LAYER
  5
80
330
2
100
AcDbSymbolTableRecord
100
AcDbLayerTableRecord
  2
KESIT-DETAY_CIZGILERI
 70
     0
 62
     7
  6
Continuous
370
    -3
390
F
  0
LAYER
  5
81
330
2
100
AcDbSymbolTableRecord
100
AcDbLayerTableRecord
  2
\U+041E\U+0421\U+0415\U+0412\U+042B\U+0415
 70
     0
 62
     7
  6
Continuous
370
    -3
390
F
  0
LAYER
  5
82
330
2
100
AcDbSymbolTableRecord
100
AcDbLayerTableRecord
  2
\U+0412\U+041E\U+0414\U+042F\U+041D\U+042B\U+0415_\U+0417\U+041D\U+0410\U+041A\U+0418
 70
     0
 62
    11
  6
Continuous
370
    -3
390
F
  0
ENDTAB
  0
TABLE
  2
STYLE
  5
3
330
0
100
AcDbSymbolTable
 70
     1
  0
STYLE
  5
11
330
3
100
AcDbSymbolTableRecord
100
AcDbTextStyleTableRecord
  2
Standard
 70
     0
 40
0.0
 41
1.0
 50
0.0
 71
     0
 42
3.5
  3
txt
  4

  0
ENDTAB
  0
TABLE
  2
VIEW
  5
6
330
0
100
AcDbSymbolTable
 70
     0
  0
ENDTAB
  0
TABLE
  2
UCS
  5
7
330
0
100
AcDbSymbolTable
 70
     0
  0
ENDTAB
  0
TABLE
  2
APPID
  5
9
330
0
100
AcDbSymbolTable
 70
     1
  0
APPID
  5
12
330
9
100
AcDbSymbolTableRecord
100
AcDbRegAppTableRecord
  2
ACAD
 70
     0
  0
ENDTAB
  0
TABLE
  2
DIMSTYLE
  5
A
330
0
100
AcDbSymbolTable
 70
     1
100
AcDbDimStyleTable
  0
DIMSTYLE
105
27
330
A
100
AcDbSymbolTableRecord
100
AcDbDimStyleTableRecord
  2
ISO-25
 70
     0
 41
2.5
 42
0.625
 43
3.75
 44
1.25
 73
     0
 74
     0
 77
     1
 78
     8
140
2.5
141
2.5
143
0.0393700787
147
0.625
171
     3
172
     1
178
     0
271
     2
272
     2
274
     3
278
    44
283
     0
284
     8
340
11
  0
ENDTAB
  0
TABLE
  2
BLOCK_RECORD
  5
1
330
0
100
AcDbSymbolTable
 70
     2
  0
BLOCK_RECORD
  5
1F
330
1
100
AcDbSymbolTableRecord
100
AcDbBlockTableRecord
  2
*Model_Space
340
22
  0
BLOCK_RECORD
  5
1B
330
1
100
AcDbSymbolTableRecord
100
AcDbBlockTableRecord
  2
*Paper_Space
340
1E
  0
BLOCK_RECORD
  5
23
330
1
100
AcDbSymbolTableRecord
100
AcDbBlockTableRecord
  2
*Paper_Space0
340
26
  0
BLOCK_RECORD
  5
8C
330
1
100
AcDbSymbolTableRecord
100
AcDbBlockTableRecord
  2
SW_CENTERMARKSYMBOL_0
340
0
102
{BLKREFS
331
97
102
}
  0
ENDTAB
  0
ENDSEC
  0
SECTION
  2
BLOCKS
  0
BLOCK
  5
20
330
1F
100
AcDbEntity
  8
0
100
AcDbBlockBegin
  2
*Model_Space
 70
     0
 10
0.0
 20
0.0
 30
0.0
  3
*Model_Space
  1

  0
ENDBLK
  5
21
330
1F
100
AcDbEntity
  8
0
100
AcDbBlockEnd
  0
BLOCK
  5
1C
330
1B
100
AcDbEntity
 67
     1
  8
0
100
AcDbBlockBegin
  2
*Paper_Space
 70
     0
 10
0.0
 20
0.0
 30
0.0
  3
*Paper_Space
  1

  0
ENDBLK
  5
1D
330
1B
100
AcDbEntity
 67
     1
  8
0
100
AcDbBlockEnd
  0
BLOCK
  5
24
330
23
100
AcDbEntity
  8
0
100
AcDbBlockBegin
  2
*Paper_Space0
 70
     0
 10
0.0
 20
0.0
 30
0.0
  3
*Paper_Space0
  1

  0
ENDBLK
  5
25
330
23
100
AcDbEntity
  8
0
100
AcDbBlockEnd
  0
BLOCK
  5
8D
330
8C
100
AcDbEntity
  8
0
100
AcDbBlockBegin
  2
SW_CENTERMARKSYMBOL_0
 70
     0
 10
0.0
 20
0.0
 30
0.0
  3
SW_CENTERMARKSYMBOL_0
  1

  0
LINE
  5
8F
330
8C
100
AcDbEntity
  8
FORMAT
 62
     0
100
AcDbLine
 10
0.0
 20
0.0
 30
0.0
 11
0.0
 21
2.5
 31
0.0
  0
LINE
  5
90
330
8C
100
AcDbEntity
  8
FORMAT
 62
     0
100
AcDbLine
 10
0.0
 20
0.0
 30
0.0
 11
-2.5
 21
0.0
 31
0.0
  0
LINE
  5
91
330
8C
100
AcDbEntity
  8
FORMAT
 62
     0
100
AcDbLine
 10
0.0
 20
0.0
 30
0.0
 11
0.0
 21
-2.5
 31
0.0
  0
LINE
  5
92
330
8C
100
AcDbEntity
  8
FORMAT
 62
     0
100
AcDbLine
 10
0.0
 20
0.0
 30
0.0
 11
2.5
 21
0.0
 31
0.0
  0
LINE
  5
93
330
8C
100
AcDbEntity
  8
FORMAT
 62
     0
100
AcDbLine
 10
0.0
 20
5.0
 30
0.0
 11
0.0
 21
12.5
 31
0.0
  0
LINE
  5
94
330
8C
100
AcDbEntity
  8
FORMAT
 62
     0
100
AcDbLine
 10
-5.0
 20
0.0
 30
0.0
 11
-12.5
 21
0.0
 31
0.0
  0
LINE
  5
95
330
8C
100
AcDbEntity
  8
FORMAT
 62
     0
100
AcDbLine
 10
0.0
 20
-5.0
 30
0.0
 11
0.0
 21
-12.5
 31
0.0
  0
LINE
  5
96
330
8C
100
AcDbEntity
  8
FORMAT
 62
     0
100
AcDbLine
 10
5.0
 20
0.0
 30
0.0
 11
12.5
 21
0.0
 31
0.0
  0
ENDBLK
  5
8E
330
8C
100
AcDbEntity
  8
0
100
AcDbBlockEnd
  0
ENDSEC
  0
SECTION
  2
ENTITIES
  0
CIRCLE
  5
83
330
1F
100
AcDbEntity
  8
0
  6
Continuous
 62
     7
370
    25
100
AcDbCircle
 10
139.8323425481
 20
108.7440552885
 30
0.0
 40
7.0
  0
CIRCLE
  5
84
330
1F
100
AcDbEntity
  8
0
  6
Continuous
 62
     7
370
    25
100
AcDbCircle
 10
139.8323425481
 20
108.7440552885
 30
0.0
 40
10.00000000000003
  0
CIRCLE
  5
85
330
1F
100
AcDbEntity
  8
0
  6
Continuous
 62
     7
370
    25
100
AcDbCircle
 10
139.8323425481
 20
108.7440552885
 30
0.0
 40
6.0
  0
LINE
  5
86
330
1F
100
AcDbEntity
  8
0
  6
Continuous
 62
     7
370
    25
100
AcDbLine
 10
139.8323425481
 20
90.2688466744
 30
0.0
 11
123.8323425481
 21
99.5064509814
 31
0.0
  0
LINE
  5
87
330
1F
100
AcDbEntity
  8
0
  6
Continuous
 62
     7
370
    25
100
AcDbLine
 10
123.8323425481
 20
99.5064509814
 30
0.0
 11
123.8323425481
 21
117.9816595955
 31
0.0
  0
LINE
  5
88
330
1F
100
AcDbEntity
  8
0
  6
Continuous
 62
     7
370
    25
100
AcDbLine
 10
123.8323425481
 20
117.9816595955
 30
0.0
 11
139.8323425481
 21
127.2192639025
 31
0.0
  0
LINE
  5
89
330
1F
100
AcDbEntity
  8
0
  6
Continuous
 62
     7
370
    25
100
AcDbLine
 10
139.8323425481
 20
127.2192639025
 30
0.0
 11
155.8323425481
 21
117.9816595955
 31
0.0
  0
LINE
  5
8A
330
1F
100
AcDbEntity
  8
0
  6
Continuous
 62
     7
370
    25
100
AcDbLine
 10
155.8323425481
 20
117.9816595955
 30
0.0
 11
155.8323425481
 21
99.5064509814
 31
0.0
  0
LINE
  5
8B
330
1F
100
AcDbEntity
  8
0
  6
Continuous
 62
     7
370
    25
100
AcDbLine
 10
155.8323425481
 20
99.5064509814
 30
0.0
 11
139.8323425481
 21
90.2688466744
 31
0.0
  0
INSERT
  5
97
330
1F
100
AcDbEntity
  8
FORMAT
 62
     7
100
AcDbBlockReference
  2
SW_CENTERMARKSYMBOL_0
 10
139.8323425481
 20
108.7440552885
 30
0.0
  0
LINE
  5
98
330
1F
100
AcDbEntity
  8
0
  6
Continuous
 62
     7
370
    25
100
AcDbLine
 10
150.3323425481
 20
137.137405077
 30
0.0
 11
150.3323425481
 21
137.337405077
 31
0.0
  0
LINE
  5
99
330
1F
100
AcDbEntity
  8
0
  6
Continuous
 62
     7
370
    25
100
AcDbLine
 10
129.3323425481
 20
137.337405077
 30
0.0
 11
129.3323425481
 21
137.137405077
 31
0.0
  0
LINE
  5
9A
330
1F
100
AcDbEntity
  8
0
  6
Continuous
 62
     7
370
    25
100
AcDbLine
 10
150.3323425481
 20
137.337405077
 30
0.0
 11
148.6002917405
 21
138.337405077
 31
0.0
  0
LINE
  5
9B
330
1F
100
AcDbEntity
  8
0
  6
Continuous
 62
     7
370
    25
100
AcDbLine
 10
131.0643933556
 20
138.337405077
 30
0.0
 11
129.3323425481
 21
137.337405077
 31
0.0
  0
LINE
  5
9C
330
1F
100
AcDbEntity
  8
0
  6
Continuous
 62
     7
370
    25
100
AcDbLine
 10
129.3323425481
 20
139.337405077
 30
0.0
 11
131.0643933556
 21
138.337405077
 31
0.0
  0
LINE
  5
9D
330
1F
100
AcDbEntity
  8
0
  6
Continuous
 62
     7
370
    25
100
AcDbLine
 10
148.6002917405
 20
138.337405077
 30
0.0
 11
150.3323425481
 21
139.337405077
 31
0.0
  0
LINE
  5
9E
330
1F
100
AcDbEntity
  8
0
  6
Continuous
 62
     7
370
    25
100
AcDbLine
 10
150.3323425481
 20
139.337405077
 30
0.0
 11
148.6002917405
 21
140.337405077
 31
0.0
  0
LINE
  5
9F
330
1F
100
AcDbEntity
  8
0
  6
Continuous
 62
     7
370
    25
100
AcDbLine
 10
131.0643933556
 20
140.337405077
 30
0.0
 11
129.3323425481
 21
139.337405077
 31
0.0
  0
LINE
  5
A0
330
1F
100
AcDbEntity
  8
0
  6
Continuous
 62
     7
370
    25
100
AcDbLine
 10
129.3323425481
 20
141.337405077
 30
0.0
 11
131.0643933556
 21
140.337405077
 31
0.0
  0
LINE
  5
A1
330
1F
100
AcDbEntity
  8
0
  6
Continuous
 62
     7
370
    25
100
AcDbLine
 10
148.6002917405
 20
140.337405077
 30
0.0
 11
150.3323425481
 21
141.337405077
 31
0.0
  0
LINE
  5
A2
330
1F
100
AcDbEntity
  8
0
  6
Continuous
 62
     7
370
    25
100
AcDbLine
 10
150.3323425481
 20
141.337405077
 30
0.0
 11
148.6002917405
 21
142.337405077
 31
0.0
  0
LINE
  5
A3
330
1F
100
AcDbEntity
  8
0
  6
Continuous
 62
     7
370
    25
100
AcDbLine
 10
131.0643933556
 20
142.337405077
 30
0.0
 11
129.3323425481
 21
141.337405077
 31
0.0
  0
LINE
  5
A4
330
1F
100
AcDbEntity
  8
0
  6
Continuous
 62
     7
370
    25
100
AcDbLine
 10
129.3323425481
 20
143.337405077
 30
0.0
 11
131.0643933556
 21
142.337405077
 31
0.0
  0
LINE
  5
A5
330
1F
100
AcDbEntity
  8
0
  6
Continuous
 62
     7
370
    25
100
AcDbLine
 10
148.6002917405
 20
142.337405077
 30
0.0
 11
150.3323425481
 21
143.337405077
 31
0.0
  0
LINE
  5
A6
330
1F
100
AcDbEntity
  8
0
  6
Continuous
 62
     7
370
    25
100
AcDbLine
 10
150.3323425481
 20
143.337405077
 30
0.0
 11
150.3323425481
 21
155.137405077
 31
0.0
  0
LINE
  5
A7
330
1F
100
AcDbEntity
  8
0
  6
Continuous
 62
     7
370
    25
100
AcDbLine
 10
129.3323425481
 20
155.137405077
 30
0.0
 11
129.3323425481
 21
143.337405077
 31
0.0
  0
LINE
  5
A8
330
1F
100
AcDbEntity
  8
0
  6
Continuous
 62
     7
370
    25
100
AcDbLine
 10
149.8323425481
 20
169.137405077
 30
0.0
 11
149.8323425481
 21
202.637405077
 31
0.0
  0
LINE
  5
A9
330
1F
100
AcDbEntity
  8
0
  6
Continuous
 62
     7
370
    25
100
AcDbLine
 10
129.8323425481
 20
202.637405077
 30
0.0
 11
129.8323425481
 21
169.137405077
 31
0.0
  0
LINE
  5
AA
330
1F
100
AcDbEntity
  8
0
  6
Continuous
 62
     7
370
    25
100
AcDbLine
 10
139.8323425481
 20
169.137405077
 30
0.0
 11
139.8323425481
 21
155.137405077
 31
0.0
  0
LINE
  5
AB
330
1F
100
AcDbEntity
  8
0
  6
Continuous
 62
     7
370
    25
100
AcDbLine
 10
155.8323425481
 20
169.137405077
 30
0.0
 11
139.8323425481
 21
169.137405077
 31
0.0
  0
LINE
  5
AC
330
1F
100
AcDbEntity
  8
0
  6
Continuous
 62
     7
370
    25
100
AcDbLine
 10
155.8323425481
 20
169.137405077
 30
0.0
 11
155.8323425481
 21
155.137405077
 31
0.0
  0
LINE
  5
AD
330
1F
100
AcDbEntity
  8
0
  6
Continuous
 62
     7
370
    25
100
AcDbLine
 10
139.8323425481
 20
155.137405077
 30
0.0
 11
155.8323425481
 21
155.137405077
 31
0.0
  0
LINE
  5
AE
330
1F
100
AcDbEntity
  8
0
  6
Continuous
 62
     7
370
    25
100
AcDbLine
 10
123.8323425481
 20
169.137405077
 30
0.0
 11
123.8323425481
 21
155.137405077
 31
0.0
  0
LINE
  5
AF
330
1F
100
AcDbEntity
  8
0
  6
Continuous
 62
     7
370
    25
100
AcDbLine
 10
139.8323425481
 20
169.137405077
 30
0.0
 11
123.8323425481
 21
169.137405077
 31
0.0
  0
LINE
  5
B0
330
1F
100
AcDbEntity
  8
0
  6
Continuous
 62
     7
370
    25
100
AcDbLine
 10
123.8323425481
 20
155.137405077
 30
0.0
 11
139.8323425481
 21
155.137405077
 31
0.0
  0
LINE
  5
B1
330
1F
100
AcDbEntity
  8
0
  6
Continuous
 62
     7
370
    25
100
AcDbLine
 10
150.3323425481
 20
137.337405077
 30
0.0
 11
129.3323425481
 21
137.337405077
 31
0.0
  0
LINE
  5
B2
330
1F
100
AcDbEntity
  8
0
  6
Continuous
 62
     7
370
    25
100
AcDbLine
 10
150.3323425481
 20
137.137405077
 30
0.0
 11
129.3323425481
 21
137.137405077
 31
0.0
  0
LINE
  5
B3
330
1F
100
AcDbEntity
  8
0
  6
Continuous
 62
     7
370
    25
100
AcDbLine
 10
148.6002917405
 20
138.337405077
 30
0.0
 11
131.0643933556
 21
138.337405077
 31
0.0
  0
LINE
  5
B4
330
1F
100
AcDbEntity
  8
0
  6
Continuous
 62
     7
370
    25
100
AcDbLine
 10
150.3323425481
 20
139.337405077
 30
0.0
 11
129.3323425481
 21
139.337405077
 31
0.0
  0
LINE
  5
B5
330
1F
100
AcDbEntity
  8
0
  6
Continuous
 62
     7
370
    25
100
AcDbLine
 10
148.6002917405
 20
140.337405077
 30
0.0
 11
131.0643933556
 21
140.337405077
 31
0.0
  0
LINE
  5
B6
330
1F
100
AcDbEntity
  8
0
  6
Continuous
 62
     7
370
    25
100
AcDbLine
 10
150.3323425481
 20
141.337405077
 30
0.0
 11
129.3323425481
 21
141.337405077
 31
0.0
  0
LINE
  5
B7
330
1F
100
AcDbEntity
  8
0
  6
Continuous
 62
     7
370
    25
100
AcDbLine
 10
148.6002917405
 20
142.337405077
 30
0.0
 11
131.0643933556
 21
142.337405077
 31
0.0
  0
LINE
  5
B8
330
1F
100
AcDbEntity
  8
0
  6
Continuous
 62
     7
370
    25
100
AcDbLine
 10
150.3323425481
 20
143.337405077
 30
0.0
 11
129.3323425481
 21
143.337405077
 31
0.0
  0
LINE
  5
B9
330
1F
100
AcDbEntity
  8
0
  6
Continuous
 62
     7
370
    25
100
AcDbLine
 10
149.8323425481
 20
202.637405077
 30
0.0
 11
129.8323425481
 21
202.637405077
 31
0.0
  0
LINE
  5
BA
330
1F
100
AcDbEntity
  8
0
  6
Continuous
 62
     7
370
    25
100
AcDbLine
 10
193.319244041
 20
98.2440552885
 30
0.0
 11
194.319244041
 21
99.976106096
 31
0.0
  0
LINE
  5
BB
330
1F
100
AcDbEntity
  8
0
  6
Continuous
 62
     7
370
    25
100
AcDbLine
 10
194.319244041
 20
117.5120044809
 30
0.0
 11
193.319244041
 21
119.2440552885
 31
0.0
  0
LINE
  5
BC
330
1F
100
AcDbEntity
  8
0
  6
Continuous
 62
     7
370
    25
100
AcDbLine
 10
193.119244041
 20
98.2440552885
 30
0.0
 11
193.319244041
 21
98.2440552885
 31
0.0
  0
LINE
  5
BD
330
1F
100
AcDbEntity
  8
0
  6
Continuous
 62
     7
370
    25
100
AcDbLine
 10
193.319244041
 20
119.2440552885
 30
0.0
 11
193.119244041
 21
119.2440552885
 31
0.0
  0
LINE
  5
BE
330
1F
100
AcDbEntity
  8
0
  6
Continuous
 62
     7
370
    25
100
AcDbLine
 10
195.319244041
 20
119.2440552885
 30
0.0
 11
194.319244041
 21
117.5120044809
 31
0.0
  0
LINE
  5
BF
330
1F
100
AcDbEntity
  8
0
  6
Continuous
 62
     7
370
    25
100
AcDbLine
 10
194.319244041
 20
99.976106096
 30
0.0
 11
195.319244041
 21
98.2440552885
 31
0.0
  0
LINE
  5
C0
330
1F
100
AcDbEntity
  8
0
  6
Continuous
 62
     7
370
    25
100
AcDbLine
 10
195.319244041
 20
98.2440552885
 30
0.0
 11
196.319244041
 21
99.976106096
 31
0.0
  0
LINE
  5
C1
330
1F
100
AcDbEntity
  8
0
  6
Continuous
 62
     7
370
    25
100
AcDbLine
 10
196.319244041
 20
117.5120044809
 30
0.0
 11
195.319244041
 21
119.2440552885
 31
0.0
  0
LINE
  5
C2
330
1F
100
AcDbEntity
  8
0
  6
Continuous
 62
     7
370
    25
100
AcDbLine
 10
197.319244041
 20
119.2440552885
 30
0.0
 11
196.319244041
 21
117.5120044809
 31
0.0
  0
LINE
  5
C3
330
1F
100
AcDbEntity
  8
0
  6
Continuous
 62
     7
370
    25
100
AcDbLine
 10
196.319244041
 20
99.976106096
 30
0.0
 11
197.319244041
 21
98.2440552885
 31
0.0
  0
LINE
  5
C4
330
1F
100
AcDbEntity
  8
0
  6
Continuous
 62
     7
370
    25
100
AcDbLine
 10
197.319244041
 20
98.2440552885
 30
0.0
 11
198.319244041
 21
99.976106096
 31
0.0
  0
LINE
  5
C5
330
1F
100
AcDbEntity
  8
0
  6
Continuous
 62
     7
370
    25
100
AcDbLine
 10
198.319244041
 20
117.5120044809
 30
0.0
 11
197.319244041
 21
119.2440552885
 31
0.0
  0
LINE
  5
C6
330
1F
100
AcDbEntity
  8
0
  6
Continuous
 62
     7
370
    25
100
AcDbLine
 10
199.319244041
 20
119.2440552885
 30
0.0
 11
198.319244041
 21
117.5120044809
 31
0.0
  0
LINE
  5
C7
330
1F
100
AcDbEntity
  8
0
  6
Continuous
 62
     7
370
    25
100
AcDbLine
 10
198.319244041
 20
99.976106096
 30
0.0
 11
199.319244041
 21
98.2440552885
 31
0.0
  0
LINE
  5
C8
330
1F
100
AcDbEntity
  8
0
  6
Continuous
 62
     7
370
    25
100
AcDbLine
 10
199.319244041
 20
98.2440552885
 30
0.0
 11
211.119244041
 21
98.2440552885
 31
0.0
  0
LINE
  5
C9
330
1F
100
AcDbEntity
  8
0
  6
Continuous
 62
     7
370
    25
100
AcDbLine
 10
211.119244041
 20
119.2440552885
 30
0.0
 11
199.319244041
 21
119.2440552885
 31
0.0
  0
LINE
  5
CA
330
1F
100
AcDbEntity
  8
0
  6
Continuous
 62
     7
370
    25
100
AcDbLine
 10
225.119244041
 20
98.7440552885
 30
0.0
 11
258.619244041
 21
98.7440552885
 31
0.0
  0
LINE
  5
CB
330
1F
100
AcDbEntity
  8
0
  6
Continuous
 62
     7
370
    25
100
AcDbLine
 10
258.619244041
 20
118.7440552885
 30
0.0
 11
225.119244041
 21
118.7440552885
 31
0.0
  0
LINE
  5
CC
330
1F
100
AcDbEntity
  8
0
  6
Continuous
 62
     7
370
    25
100
AcDbLine
 10
225.119244041
 20
99.5064509814
 30
0.0
 11
211.119244041
 21
99.5064509814
 31
0.0
  0
LINE
  5
CD
330
1F
100
AcDbEntity
  8
0
  6
Continuous
 62
     7
370
    25
100
AcDbLine
 10
225.119244041
 20
90.2688466744
 30
0.0
 11
225.119244041
 21
99.5064509814
 31
0.0
  0
LINE
  5
CE
330
1F
100
AcDbEntity
  8
0
  6
Continuous
 62
     7
370
    25
100
AcDbLine
 10
225.119244041
 20
90.2688466744
 30
0.0
 11
211.119244041
 21
90.2688466744
 31
0.0
  0
LINE
  5
CF
330
1F
100
AcDbEntity
  8
0
  6
Continuous
 62
     7
370
    25
100
AcDbLine
 10
211.119244041
 20
99.5064509814
 30
0.0
 11
211.119244041
 21
90.2688466744
 31
0.0
  0
LINE
  5
D0
330
1F
100
AcDbEntity
  8
0
  6
Continuous
 62
     7
370
    25
100
AcDbLine
 10
225.119244041
 20
117.9816595955
 30
0.0
 11
211.119244041
 21
117.9816595955
 31
0.0
  0
LINE
  5
D1
330
1F
100
AcDbEntity
  8
0
  6
Continuous
 62
     7
370
    25
100
AcDbLine
 10
225.119244041
 20
99.5064509814
 30
0.0
 11
225.119244041
 21
117.9816595955
 31
0.0
  0
LINE
  5
D2
330
1F
100
AcDbEntity
  8
0
  6
Continuous
 62
     7
370
    25
100
AcDbLine
 10
211.119244041
 20
117.9816595955
 30
0.0
 11
211.119244041
 21
99.5064509814
 31
0.0
  0
LINE
  5
D3
330
1F
100
AcDbEntity
  8
0
  6
Continuous
 62
     7
370
    25
100
AcDbLine
 10
225.119244041
 20
127.2192639025
 30
0.0
 11
211.119244041
 21
127.2192639025
 31
0.0
  0
LINE
  5
D4
330
1F
100
AcDbEntity
  8
0
  6
Continuous
 62
     7
370
    25
100
AcDbLine
 10
225.119244041
 20
117.9816595955
 30
0.0
 11
225.119244041
 21
127.2192639025
 31
0.0
  0
LINE
  5
D5
330
1F
100
AcDbEntity
  8
0
  6
Continuous
 62
     7
370
    25
100
AcDbLine
 10
211.119244041
 20
127.2192639025
 30
0.0
 11
211.119244041
 21
117.9816595955
 31
0.0
  0
LINE
  5
D6
330
1F
100
AcDbEntity
  8
0
  6
Continuous
 62
     7
370
    25
100
AcDbLine
 10
194.319244041
 20
108.7440552885
 30
0.0
 11
194.319244041
 21
117.5120044809
 31
0.0
  0
LINE
  5
D7
330
1F
100
AcDbEntity
  8
0
  6
Continuous
 62
     7
370
    25
100
AcDbLine
 10
194.319244041
 20
99.976106096
 30
0.0
 11
194.319244041
 21
108.7440552885
 31
0.0
  0
LINE
  5
D8
330
1F
100
AcDbEntity
  8
0
  6
Continuous
 62
     7
370
    25
100
AcDbLine
 10
193.319244041
 20
108.7440552885
 30
0.0
 11
193.319244041
 21
119.2440552885
 31
0.0
  0
LINE
  5
D9
330
1F
100
AcDbEntity
  8
0
  6
Continuous
 62
     7
370
    25
100
AcDbLine
 10
193.319244041
 20
98.2440552885
 30
0.0
 11
193.319244041
 21
108.7440552885
 31
0.0
  0
LINE
  5
DA
330
1F
100
AcDbEntity
  8
0
  6
Continuous
 62
     7
370
    25
100
AcDbLine
 10
193.119244041
 20
108.7440552885
 30
0.0
 11
193.119244041
 21
119.2440552885
 31
0.0
  0
LINE
  5
DB
330
1F
100
AcDbEntity
  8
0
  6
Continuous
 62
     7
370
    25
100
AcDbLine
 10
193.119244041
 20
98.2440552885
 30
0.0
 11
193.119244041
 21
108.7440552885
 31
0.0
  0
LINE
  5
DC
330
1F
100
AcDbEntity
  8
0
  6
Continuous
 62
     7
370
    25
100
AcDbLine
 10
195.319244041
 20
108.7440552885
 30
0.0
 11
195.319244041
 21
119.2440552885
 31
0.0
  0
LINE
  5
DD
330
1F
100
AcDbEntity
  8
0
  6
Continuous
 62
     7
370
    25
100
AcDbLine
 10
195.319244041
 20
98.2440552885
 30
0.0
 11
195.319244041
 21
108.7440552885
 31
0.0
  0
LINE
  5
DE
330
1F
100
AcDbEntity
  8
0
  6
Continuous
 62
     7
370
    25
100
AcDbLine
 10
196.319244041
 20
108.7440552885
 30
0.0
 11
196.319244041
 21
117.5120044809
 31
0.0
  0
LINE
  5
DF
330
1F
100
AcDbEntity
  8
0
  6
Continuous
 62
     7
370
    25
100
AcDbLine
 10
196.319244041
 20
99.976106096
 30
0.0
 11
196.319244041
 21
108.7440552885
 31
0.0
  0
LINE
  5
E0
330
1F
100
AcDbEntity
  8
0
  6
Continuous
 62
     7
370
    25
100
AcDbLine
 10
197.319244041
 20
108.7440552885
 30
0.0
 11
197.319244041
 21
119.2440552885
 31
0.0
  0
LINE
  5
E1
330
1F
100
AcDbEntity
  8
0
  6
Continuous
 62
     7
370
    25
100
AcDbLine
 10
197.319244041
 20
98.2440552885
 30
0.0
 11
197.319244041
 21
108.7440552885
 31
0.0
  0
LINE
  5
E2
330
1F
100
AcDbEntity
  8
0
  6
Continuous
 62
     7
370
    25
100
AcDbLine
 10
198.319244041
 20
108.7440552885
 30
0.0
 11
198.319244041
 21
117.5120044809
 31
0.0
  0
LINE
  5
E3
330
1F
100
AcDbEntity
  8
0
  6
Continuous
 62
     7
370
    25
100
AcDbLine
 10
198.319244041
 20
99.976106096
 30
0.0
 11
198.319244041
 21
108.7440552885
 31
0.0
  0
LINE
  5
E4
330
1F
100
AcDbEntity
  8
0
  6
Continuous
 62
     7
370
    25
100
AcDbLine
 10
199.319244041
 20
108.7440552885
 30
0.0
 11
199.319244041
 21
119.2440552885
 31
0.0
  0
LINE
  5
E5
330
1F
100
AcDbEntity
  8
0
  6
Continuous
 62
     7
370
    25
100
AcDbLine
 10
199.319244041
 20
98.2440552885
 30
0.0
 11
199.319244041
 21
108.7440552885
 31
0.0
  0
LINE
  5
E6
330
1F
100
AcDbEntity
  8
0
  6
Continuous
 62
     7
370
    25
100
AcDbLine
 10
258.619244041
 20
108.7440552885
 30
0.0
 11
258.619244041
 21
118.7440552885
 31
0.0
  0
LINE
  5
E7
330
1F
100
AcDbEntity
  8
0
  6
Continuous
 62
     7
370
    25
100
AcDbLine
 10
258.619244041
 20
98.7440552885
 30
0.0
 11
258.619244041
 21
108.7440552885
 31
0.0
  0
LINE
  5
E8
330
1F
100
AcDbEntity
  8
0
  6
Continuous
 62
     7
370
    25
100
AcDbLine
 10
86.6317308965
 20
119.2440552885
 30
0.0
 11
86.4317308965
 21
119.2440552885
 31
0.0
  0
LINE
  5
E9
330
1F
100
AcDbEntity
  8
0
  6
Continuous
 62
     7
370
    25
100
AcDbLine
 10
86.4317308965
 20
98.2440552885
 30
0.0
 11
86.6317308965
 21
98.2440552885
 31
0.0
  0
LINE
  5
EA
330
1F
100
AcDbEntity
  8
0
  6
Continuous
 62
     7
370
    25
100
AcDbLine
 10
86.4317308965
 20
119.2440552885
 30
0.0
 11
85.4317308965
 21
117.5120044809
 31
0.0
  0
LINE
  5
EB
330
1F
100
AcDbEntity
  8
0
  6
Continuous
 62
     7
370
    25
100
AcDbLine
 10
85.4317308965
 20
99.976106096
 30
0.0
 11
86.4317308965
 21
98.2440552885
 31
0.0
  0
LINE
  5
EC
330
1F
100
AcDbEntity
  8
0
  6
Continuous
 62
     7
370
    25
100
AcDbLine
 10
84.4317308965
 20
98.2440552885
 30
0.0
 11
85.4317308965
 21
99.976106096
 31
0.0
  0
LINE
  5
ED
330
1F
100
AcDbEntity
  8
0
  6
Continuous
 62
     7
370
    25
100
AcDbLine
 10
85.4317308965
 20
117.5120044809
 30
0.0
 11
84.4317308965
 21
119.2440552885
 31
0.0
  0
LINE
  5
EE
330
1F
100
AcDbEntity
  8
0
  6
Continuous
 62
     7
370
    25
100
AcDbLine
 10
84.4317308965
 20
119.2440552885
 30
0.0
 11
83.4317308965
 21
117.5120044809
 31
0.0
  0
LINE
  5
EF
330
1F
100
AcDbEntity
  8
0
  6
Continuous
 62
     7
370
    25
100
AcDbLine
 10
83.4317308965
 20
99.976106096
 30
0.0
 11
84.4317308965
 21
98.2440552885
 31
0.0
  0
LINE
  5
F0
330
1F
100
AcDbEntity
  8
0
  6
Continuous
 62
     7
370
    25
100
AcDbLine
 10
82.4317308965
 20
98.2440552885
 30
0.0
 11
83.4317308965
 21
99.976106096
 31
0.0
  0
LINE
  5
F1
330
1F
100
AcDbEntity
  8
0
  6
Continuous
 62
     7
370
    25
100
AcDbLine
 10
83.4317308965
 20
117.5120044809
 30
0.0
 11
82.4317308965
 21
119.2440552885
 31
0.0
  0
LINE
  5
F2
330
1F
100
AcDbEntity
  8
0
  6
Continuous
 62
     7
370
    25
100
AcDbLine
 10
82.4317308965
 20
119.2440552885
 30
0.0
 11
81.4317308965
 21
117.5120044809
 31
0.0
  0
LINE
  5
F3
330
1F
100
AcDbEntity
  8
0
  6
Continuous
 62
     7
370
    25
100
AcDbLine
 10
81.4317308965
 20
99.976106096
 30
0.0
 11
82.4317308965
 21
98.2440552885
 31
0.0
  0
LINE
  5
F4
330
1F
100
AcDbEntity
  8
0
  6
Continuous
 62
     7
370
    25
100
AcDbLine
 10
80.4317308965
 20
98.2440552885
 30
0.0
 11
81.4317308965
 21
99.976106096
 31
0.0
  0
LINE
  5
F5
330
1F
100
AcDbEntity
  8
0
  6
Continuous
 62
     7
370
    25
100
AcDbLine
 10
81.4317308965
 20
117.5120044809
 30
0.0
 11
80.4317308965
 21
119.2440552885
 31
0.0
  0
LINE
  5
F6
330
1F
100
AcDbEntity
  8
0
  6
Continuous
 62
     7
370
    25
100
AcDbLine
 10
80.4317308965
 20
119.2440552885
 30
0.0
 11
68.6317308965
 21
119.2440552885
 31
0.0
  0
LINE
  5
F7
330
1F
100
AcDbEntity
  8
0
  6
Continuous
 62
     7
370
    25
100
AcDbLine
 10
68.6317308965
 20
98.2440552885
 30
0.0
 11
80.4317308965
 21
98.2440552885
 31
0.0
  0
LINE
  5
F8
330
1F
100
AcDbEntity
  8
0
  6
Continuous
 62
     7
370
    25
100
AcDbLine
 10
54.6317308965
 20
118.7440552885
 30
0.0
 11
21.1317308965
 21
118.7440552885
 31
0.0
  0
LINE
  5
F9
330
1F
100
AcDbEntity
  8
0
  6
Continuous
 62
     7
370
    25
100
AcDbLine
 10
21.1317308965
 20
98.7440552885
 30
0.0
 11
54.6317308965
 21
98.7440552885
 31
0.0
  0
LINE
  5
FA
330
1F
100
AcDbEntity
  8
0
  6
Continuous
 62
     7
370
    25
100
AcDbLine
 10
54.6317308965
 20
99.5064509814
 30
0.0
 11
68.6317308965
 21
99.5064509814
 31
0.0
  0
LINE
  5
FB
330
1F
100
AcDbEntity
  8
0
  6
Continuous
 62
     7
370
    25
100
AcDbLine
 10
54.6317308965
 20
117.9816595955
 30
0.0
 11
54.6317308965
 21
99.5064509814
 31
0.0
  0
LINE
  5
FC
330
1F
100
AcDbEntity
  8
0
  6
Continuous
 62
     7
370
    25
100
AcDbLine
 10
54.6317308965
 20
117.9816595955
 30
0.0
 11
68.6317308965
 21
117.9816595955
 31
0.0
  0
LINE
  5
FD
330
1F
100
AcDbEntity
  8
0
  6
Continuous
 62
     7
370
    25
100
AcDbLine
 10
68.6317308965
 20
99.5064509814
 30
0.0
 11
68.6317308965
 21
117.9816595955
 31
0.0
  0
LINE
  5
FE
330
1F
100
AcDbEntity
  8
0
  6
Continuous
 62
     7
370
    25
100
AcDbLine
 10
54.6317308965
 20
127.2192639025
 30
0.0
 11
54.6317308965
 21
117.9816595955
 31
0.0
  0
LINE
  5
FF
330
1F
100
AcDbEntity
  8
0
  6
Continuous
 62
     7
370
    25
100
AcDbLine
 10
54.6317308965
 20
127.2192639025
 30
0.0
 11
68.6317308965
 21
127.2192639025
 31
0.0
  0
LINE
  5
100
330
1F
100
AcDbEntity
  8
0
  6
Continuous
 62
     7
370
    25
100
AcDbLine
 10
68.6317308965
 20
117.9816595955
 30
0.0
 11
68.6317308965
 21
127.2192639025
 31
0.0
  0
LINE
  5
101
330
1F
100
AcDbEntity
  8
0
  6
Continuous
 62
     7
370
    25
100
AcDbLine
 10
54.6317308965
 20
90.2688466744
 30
0.0
 11
68.6317308965
 21
90.2688466744
 31
0.0
  0
LINE
  5
102
330
1F
100
AcDbEntity
  8
0
  6
Continuous
 62
     7
370
    25
100
AcDbLine
 10
54.6317308965
 20
99.5064509814
 30
0.0
 11
54.6317308965
 21
90.2688466744
 31
0.0
  0
LINE
  5
103
330
1F
100
AcDbEntity
  8
0
  6
Continuous
 62
     7
370
    25
100
AcDbLine
 10
68.6317308965
 20
90.2688466744
 30
0.0
 11
68.6317308965
 21
99.5064509814
 31
0.0
  0
LINE
  5
104
330
1F
100
AcDbEntity
  8
0
  6
Continuous
 62
     7
370
    25
100
AcDbLine
 10
86.4317308965
 20
119.2440552885
 30
0.0
 11
86.4317308965
 21
98.2440552885
 31
0.0
  0
LINE
  5
105
330
1F
100
AcDbEntity
  8
0
  6
Continuous
 62
     7
370
    25
100
AcDbLine
 10
86.6317308965
 20
119.2440552885
 30
0.0
 11
86.6317308965
 21
98.2440552885
 31
0.0
  0
LINE
  5
106
330
1F
100
AcDbEntity
  8
0
  6
Continuous
 62
     7
370
    25
100
AcDbLine
 10
85.4317308965
 20
117.5120044809
 30
0.0
 11
85.4317308965
 21
99.976106096
 31
0.0
  0
LINE
  5
107
330
1F
100
AcDbEntity
  8
0
  6
Continuous
 62
     7
370
    25
100
AcDbLine
 10
84.4317308965
 20
119.2440552885
 30
0.0
 11
84.4317308965
 21
98.2440552885
 31
0.0
  0
LINE
  5
108
330
1F
100
AcDbEntity
  8
0
  6
Continuous
 62
     7
370
    25
100
AcDbLine
 10
83.4317308965
 20
117.5120044809
 30
0.0
 11
83.4317308965
 21
99.976106096
 31
0.0
  0
LINE
  5
109
330
1F
100
AcDbEntity
  8
0
  6
Continuous
 62
     7
370
    25
100
AcDbLine
 10
82.4317308965
 20
119.2440552885
 30
0.0
 11
82.4317308965
 21
98.2440552885
 31
0.0
  0
LINE
  5
10A
330
1F
100
AcDbEntity
  8
0
  6
Continuous
 62
     7
370
    25
100
AcDbLine
 10
81.4317308965
 20
117.5120044809
 30
0.0
 11
81.4317308965
 21
99.976106096
 31
0.0
  0
LINE
  5
10B
330
1F
100
AcDbEntity
  8
0
  6
Continuous
 62
     7
370
    25
100
AcDbLine
 10
80.4317308965
 20
119.2440552885
 30
0.0
 11
80.4317308965
 21
98.2440552885
 31
0.0
  0
LINE
  5
10C
330
1F
100
AcDbEntity
  8
0
  6
Continuous
 62
     7
370
    25
100
AcDbLine
 10
21.1317308965
 20
118.7440552885
 30
0.0
 11
21.1317308965
 21
98.7440552885
 31
0.0
  0
LINE
  5
10D
330
1F
100
AcDbEntity
  8
0
  6
Continuous
 62
     7
370
    25
100
AcDbLine
 10
230.3814079689
 20
45.9645565722
 30
0.0
 11
206.6933307992
 21
59.6393924452
 31
0.0
  0
LINE
  5
10E
330
1F
100
AcDbEntity
  8
0
  6
Continuous
 62
     7
370
    25
100
AcDbLine
 10
196.6941434728
 20
42.3184151976
 30
0.0
 11
220.3822206426
 21
28.6435793246
 31
0.0
  0
LINE
  5
10F
330
1F
100
AcDbEntity
  8
0
  6
Continuous
 62
     7
370
    25
100
AcDbLine
 10
248.8747426067
 20
35.8659163608
 30
0.0
 11
246.5950177414
 21
37.1819735126
 31
0.0
  0
LINE
  5
110
330
1F
100
AcDbEntity
  8
0
  6
Continuous
 62
     7
370
    25
100
AcDbLine
 10
236.907493859
 20
18.5264075273
 30
0.0
 11
238.375595914
 21
17.6788902509
 31
0.0
  0
LINE
  5
111
330
1F
100
AcDbEntity
  8
0
  6
Continuous
 62
     7
370
    25
100
AcDbLine
 10
253.2588046501
 20
33.3350512142
 30
0.0
 11
253.1173832938
 21
33.4166920254
 31
0.0
  0
LINE
  5
112
330
1F
100
AcDbEntity
  8
0
  6
Continuous
 62
     7
370
    25
100
AcDbLine
 10
242.6182366012
 20
15.2296659154
 30
0.0
 11
242.7596579574
 21
15.1480251042
 31
0.0
  0
LWPOLYLINE
  5
113
330
1F
100
AcDbEntity
  8
0
  6
Continuous
 62
     7
370
    25
100
AcDbPolyline
 90
       71
 70
   128
 43
0.0
 10
196.7439896677
 20
48.12147543
 10
196.7639158958
 20
48.6453376751
 10
196.8235341459
 20
49.1879884227
 10
196.9223644067
 20
49.7450585681
 10
197.0596109553
 20
50.31206291
 10
197.2341687631
 20
50.8844362627
 10
197.4446323932
 20
51.4575702127
 10
197.6893073163
 20
52.0268502224
 10
197.9662235537
 20
52.5876927838
 10
198.2731515387
 20
53.1355823225
 10
198.6076200677
 20
53.666107554
 10
198.9669361968
 20
54.1749970011
 10
199.3482069236
 20
54.6581533851
 10
199.7483624806
 20
55.1116866151
 10
200.1641810504
 20
55.531945108
 10
200.5923147065
 20
55.9155451896
 10
201.0293163684
 20
56.2593983377
 10
201.4716675556
 20
56.5607360487
 10
201.9158067165
 20
56.8171321288
 10
202.3581579037
 20
57.0265222273
 10
202.7951595655
 20
57.1872204584
 10
203.2232932216
 20
57.2979329743
 10
203.6391117914
 20
57.357768383
 10
204.0392673484
 20
57.366244925
 10
204.4205380753
 20
57.3232943521
 10
204.7798542043
 20
57.2292624771
 10
205.1143227333
 20
57.0849063894
 10
205.4212507183
 20
56.8913883592
 10
205.6981669557
 20
56.6502664801
 10
205.9428418788
 20
56.3634821235
 10
206.1533055089
 20
56.0333443085
 10
206.3278633167
 20
55.6625111107
 10
206.4651098653
 20
55.2539682609
 10
206.5639401262
 20
54.8110051059
 10
206.6235583762
 20
54.3371881246
 10
206.6434846043
 20
53.8363322128
 10
206.6235583762
 20
53.3124699677
 10
206.5639401262
 20
52.76981922
 10
206.4651098653
 20
52.2127490747
 10
206.3278633167
 20
51.6457447328
 10
206.1533055089
 20
51.0733713801
 10
205.9428418788
 20
50.5002374301
 10
205.6981669557
 20
49.9309574204
 10
205.4212507183
 20
49.3701148589
 10
205.1143227333
 20
48.8222253203
 10
204.7798542043
 20
48.2917000888
 10
204.4205380753
 20
47.7828106417
 10
204.0392673484
 20
47.2996542577
 10
203.6391117914
 20
46.8461210277
 10
203.2232932216
 20
46.4258625348
 10
202.7951595655
 20
46.0422624532
 10
202.3581579037
 20
45.6984093051
 10
201.9158067165
 20
45.3970715941
 10
201.4716675556
 20
45.140675514
 10
201.0293163684
 20
44.9312854155
 10
200.5923147065
 20
44.7705871844
 10
200.1641810504
 20
44.6598746685
 10
199.7483624806
 20
44.6000392598
 10
199.3482069236
 20
44.5915627178
 10
198.9669361968
 20
44.6345132907
 10
198.6076200677
 20
44.7285451657
 10
198.2731515387
 20
44.8729012534
 10
197.9662235537
 20
45.0664192836
 10
197.6893073163
 20
45.3075411627
 10
197.4446323932
 20
45.5943255193
 10
197.2341687631
 20
45.9244633343
 10
197.0596109553
 20
46.2952965321
 10
196.9223644067
 20
46.7038393819
 10
196.8235341459
 20
47.1468025369
 10
196.7639158958
 20
47.6206195182
 10
196.7439896677
 20
48.12147543
  0
LWPOLYLINE
  5
114
330
1F
100
AcDbEntity
  8
0
  6
Continuous
 62
     7
370
    25
100
AcDbPolyline
 90
       85
 70
   128
 43
0.0
 10
194.6226693241
 20
46.8968632623
 10
194.6424414639
 20
47.5184791885
 10
194.7016473093
 20
48.1594472129
 10
194.7999557573
 20
48.8161827824
 10
194.9368170271
 20
49.4850131652
 10
195.1114657351
 20
50.1621979905
 10
195.3229251747
 20
50.8439501662
 10
195.5700127791
 20
51.5264570574
 10
195.851346734
 20
52.2059018088
 10
196.165353706
 20
52.8784846897
 10
196.5102776407
 20
53.5404443439
 10
196.8841895835
 20
54.1880788244
 10
197.2849984671
 20
54.8177662965
 10
197.7104628057
 20
55.4259852925
 10
198.1582032301
 20
56.009334405
 10
198.6257157942
 20
56.5645513092
 10
199.1103859783
 20
57.0885310068
 10
199.6095033099
 20
57.578343191
 10
200.1202765224
 20
58.0312486332
 10
200.639849165
 20
58.4447145025
 10
201.1653155767
 20
58.81642853
 10
201.693737136
 20
59.1443119403
 10
202.2221586953
 20
59.4265310761
 10
202.747625107
 20
59.6615076536
 10
203.2671977496
 20
59.8479275885
 10
203.7779709622
 20
59.9847483449
 10
204.2770882938
 20
60.0712047656
 10
204.7617584778
 20
60.1068133512
 10
205.2292710419
 20
60.0913749642
 10
205.6770114664
 20
60.0249759421
 10
206.102475805
 20
59.9079876153
 10
206.5032846886
 20
59.74106423
 10
206.8771966313
 20
59.5251392894
 10
207.222120566
 20
59.2614203333
 10
207.536127538
 20
58.9513821853
 10
207.817461493
 20
58.5967587043
 10
208.0645490973
 20
58.1995330887
 10
208.276008537
 20
57.7619267853
 10
208.4506572449
 20
57.286387066
 10
208.5875185147
 20
56.7755733419
 10
208.6858269627
 20
56.2323422904
 10
208.7450328081
 20
55.6597318801
 10
208.7648049479
 20
55.0609443805
 10
208.7450328081
 20
54.4393284543
 10
208.6858269627
 20
53.7983604299
 10
208.5875185147
 20
53.1416248604
 10
208.4506572449
 20
52.4727944776
 10
208.276008537
 20
51.7956096523
 10
208.0645490973
 20
51.1138574766
 10
207.817461493
 20
50.4313505854
 10
207.536127538
 20
49.751905834
 10
207.222120566
 20
49.0793229531
 10
206.8771966313
 20
48.4173632989
 10
206.5032846886
 20
47.7697288184
 10
206.102475805
 20
47.1400413463
 10
205.6770114664
 20
46.5318223503
 10
205.2292710419
 20
45.9484732378
 10
204.7617584778
 20
45.3932563336
 10
204.2770882938
 20
44.869276636
 10
203.7779709622
 20
44.3794644518
 10
203.2671977496
 20
43.9265590096
 10
202.747625107
 20
43.5130931403
 10
202.2221586953
 20
43.1413791127
 10
201.693737136
 20
42.8134957025
 10
201.1653155767
 20
42.5312765667
 10
200.639849165
 20
42.2962999892
 10
200.1202765224
 20
42.1098800543
 10
199.6095033099
 20
41.9730592979
 10
199.1103859783
 20
41.8866028772
 10
198.6257157942
 20
41.8509942916
 10
198.1582032301
 20
41.8664326786
 10
197.7104628057
 20
41.9328317007
 10
197.2849984671
 20
42.0498200275
 10
196.8841895835
 20
42.2167434128
 10
196.5102776407
 20
42.4326683534
 10
196.165353706
 20
42.6963873094
 10
195.851346734
 20
43.0064254575
 10
195.5700127791
 20
43.3610489385
 10
195.3229251747
 20
43.7582745541
 10
195.1114657351
 20
44.1958808575
 10
194.9368170271
 20
44.6714205768
 10
194.7999557573
 20
45.1822343009
 10
194.7016473093
 20
45.7254653524
 10
194.6424414639
 20
46.2980757627
 10
194.6226693241
 20
46.8968632623
  0
LWPOLYLINE
  5
115
330
1F
100
AcDbEntity
  8
0
  6
Continuous
 62
     7
370
    25
100
AcDbPolyline
 90
       44
 70
   128
 43
0.0
 10
230.3814079689
 20
45.9645565722
 10
230.5652738011
 20
45.8503034163
 10
230.9101977357
 20
45.5865844603
 10
231.2242047077
 20
45.2765463123
 10
231.5055386627
 20
44.9219228313
 10
231.7526262671
 20
44.5246972157
 10
231.9640857067
 20
44.0870909123
 10
232.1387344146
 20
43.611551193
 10
232.2755956845
 20
43.1007374688
 10
232.3739041325
 20
42.5575064174
 10
232.4331099779
 20
41.9848960071
 10
232.4528821176
 20
41.3861085075
 10
232.4331099779
 20
40.7644925813
 10
232.3739041325
 20
40.1235245568
 10
232.2755956845
 20
39.4667889874
 10
232.1387344146
 20
38.7979586046
 10
231.9640857067
 20
38.1207737792
 10
231.7526262671
 20
37.4390216036
 10
231.5055386627
 20
36.7565147124
 10
231.2242047077
 20
36.077069961
 10
230.9101977357
 20
35.4044870801
 10
230.5652738011
 20
34.7425274259
 10
230.1913618583
 20
34.0948929454
 10
229.7905529747
 20
33.4652054732
 10
229.3650886361
 20
32.8569864772
 10
228.9173482117
 20
32.2736373647
 10
228.4498356475
 20
31.7184204606
 10
227.9651654635
 20
31.1944407629
 10
227.4660481319
 20
30.7046285788
 10
226.9552749193
 20
30.2517231366
 10
226.4357022767
 20
29.8382572673
 10
225.9102358651
 20
29.4665432397
 10
225.3818143058
 20
29.1386598295
 10
224.8533927464
 20
28.8564406937
 10
224.3279263348
 20
28.6214641162
 10
223.8083536922
 20
28.4350441813
 10
223.2975804796
 20
28.2982234249
 10
222.798463148
 20
28.2117670042
 10
222.313792964
 20
28.1761584185
 10
221.8462803998
 20
28.1915968056
 10
221.3985399754
 20
28.2579958277
 10
220.9730756368
 20
28.3749841545
 10
220.5722667532
 20
28.5419075398
 10
220.3822206426
 20
28.6435793246
  0
LINE
  5
116
330
1F
100
AcDbEntity
  8
0
  6
Continuous
 62
     7
370
    25
100
AcDbLine
 10
225.3818143058
 20
22.2183061069
 30
0.0
 11
235.2813092424
 21
16.5034493241
 31
0.0
  0
LINE
  5
117
330
1F
100
AcDbEntity
  8
0
  6
Continuous
 62
     7
370
    25
100
AcDbLine
 10
236.6955228047
 20
36.2924519222
 30
0.0
 11
225.3818143058
 21
22.2183061069
 31
0.0
  0
LINE
  5
118
330
1F
100
AcDbEntity
  8
0
  6
Continuous
 62
     7
370
    25
100
AcDbLine
 10
236.6955228047
 20
36.2924519222
 30
0.0
 11
246.5950177414
 21
30.5775951394
 31
0.0
  0
LINE
  5
119
330
1F
100
AcDbEntity
  8
0
  6
Continuous
 62
     7
370
    25
100
AcDbLine
 10
235.2813092424
 20
16.5034493241
 30
0.0
 11
246.5950177414
 21
30.5775951394
 31
0.0
  0
LINE
  5
11A
330
1F
100
AcDbEntity
  8
0
  6
Continuous
 62
     7
370
    25
100
AcDbLine
 10
225.3818143058
 20
22.2183061069
 30
0.0
 11
214.0681058068
 21
23.229922133
 31
0.0
  0
LINE
  5
11B
330
1F
100
AcDbEntity
  8
0
  6
Continuous
 62
     7
370
    25
100
AcDbLine
 10
214.0681058068
 20
23.229922133
 30
0.0
 11
214.0681058068
 21
32.288640232
 31
0.0
  0
LINE
  5
11C
330
1F
100
AcDbEntity
  8
0
  6
Continuous
 62
     7
370
    25
100
AcDbLine
 10
223.4386354876
 20
49.9725338135
 30
0.0
 11
225.3818143058
 21
52.3898297899
 31
0.0
  0
LINE
  5
11D
330
1F
100
AcDbEntity
  8
0
  6
Continuous
 62
     7
370
    25
100
AcDbLine
 10
225.3818143058
 20
52.3898297899
 30
0.0
 11
236.6955228047
 21
51.3782137637
 31
0.0
  0
LINE
  5
11E
330
1F
100
AcDbEntity
  8
0
  6
Continuous
 62
     7
370
    25
100
AcDbLine
 10
236.6955228047
 20
51.3782137637
 30
0.0
 11
236.6955228047
 21
36.2924519222
 31
0.0
  0
LINE
  5
11F
330
1F
100
AcDbEntity
  8
0
  6
Continuous
 62
     7
370
    25
100
AcDbLine
 10
236.6955228047
 20
51.3782137637
 30
0.0
 11
246.5950177414
 21
45.6633569809
 31
0.0
  0
LINE
  5
120
330
1F
100
AcDbEntity
  8
0
  6
Continuous
 62
     7
370
    25
100
AcDbLine
 10
246.5950177414
 20
30.5775951394
 30
0.0
 11
246.5950177414
 21
45.6633569809
 31
0.0
  0
LINE
  5
121
330
1F
100
AcDbEntity
  8
0
  6
Continuous
 62
     7
370
    25
100
AcDbLine
 10
214.0681058068
 20
23.229922133
 30
0.0
 11
223.9676007434
 21
17.5150653503
 31
0.0
  0
LINE
  5
122
330
1F
100
AcDbEntity
  8
0
  6
Continuous
 62
     7
370
    25
100
AcDbLine
 10
223.9676007434
 20
17.5150653503
 30
0.0
 11
235.2813092424
 21
16.5034493241
 31
0.0
  0
LWPOLYLINE
  5
123
330
1F
100
AcDbEntity
  8
0
  6
Continuous
 62
     7
370
    25
100
AcDbPolyline
 90
       45
 70
   128
 43
0.0
 10
248.8747426067
 20
35.8659163608
 10
249.1548205994
 20
35.6859800369
 10
249.50173087
 20
35.4048770599
 10
249.8172871419
 20
35.0777161004
 10
250.0998057857
 20
34.7062427036
 10
250.3477794422
 20
34.2924388408
 10
250.5598850647
 20
33.8385123348
 10
250.7349909779
 20
33.3468850798
 10
250.8721629161
 20
32.8201801199
 10
250.9706690075
 20
32.261207654
 10
251.0299836796
 20
31.672950042
 10
251.0497904628
 20
31.0585458929
 10
251.0299836796
 20
30.4212733186
 10
250.9706690075
 20
29.764532444
 10
250.8721629161
 20
29.0918272658
 10
250.7349909779
 20
28.4067469573
 10
250.5598850647
 20
27.7129467182
 10
250.3477794422
 20
27.0141282731
 10
250.0998057857
 20
26.3140201207
 10
249.8172871419
 20
25.6163576409
 10
249.50173087
 20
24.9248631649
 10
249.1548205994
 20
24.243226115
 10
248.7784072463
 20
23.5750833197
 10
248.3744991389
 20
22.9239996099
 10
247.9452513017
 20
22.2934487989
 10
247.4929539576
 20
21.6867951481
 10
247.0200203086
 20
21.1072754173
 10
246.5289736605
 20
20.5579815949
 10
246.0224339595
 20
20.0418444011
 10
245.5031038141
 20
19.5616176513
 10
244.9737540753
 20
19.1198635628
 10
244.437209053
 20
18.7189390848
 10
243.8963314471
 20
18.360983323
 10
243.3540070736
 20
18.0479061263
 10
242.8131294677
 20
17.7813778968
 10
242.2765844454
 20
17.562820678
 10
241.7472347067
 20
17.3934005673
 10
241.2279045612
 20
17.2740214943
 10
240.7213648602
 20
17.2053203979
 10
240.2303182121
 20
17.1876638283
 10
239.7573845632
 20
17.2211459908
 10
239.3050872191
 20
17.3055882436
 10
238.8758393819
 20
17.4405400509
 10
238.4719312745
 20
17.6252813862
 10
238.375595914
 20
17.6788902509
  0
LWPOLYLINE
  5
124
330
1F
100
AcDbEntity
  8
0
  6
Continuous
 62
     7
370
    25
100
AcDbPolyline
 90
       49
 70
   128
 43
0.0
 10
249.5340240958
 20
35.3748674928
 10
249.7887127013
 20
35.287858449
 10
250.1926208087
 20
35.1031171136
 10
250.5690341617
 20
34.8695719251
 10
250.9159444324
 20
34.5884689481
 10
251.2315007043
 20
34.2613079885
 10
251.514019348
 20
33.8898345917
 10
251.7619930046
 20
33.476030729
 10
251.9740986271
 20
33.022104223
 10
252.1492045403
 20
32.5304769679
 10
252.2863764785
 20
32.0037720081
 10
252.3848825699
 20
31.4447995422
 10
252.4441972419
 20
30.8565419302
 10
252.4640040252
 20
30.2421377811
 10
252.4441972419
 20
29.6048652068
 10
252.3848825699
 20
28.9481243322
 10
252.2863764785
 20
28.275419154
 10
252.1492045403
 20
27.5903388455
 10
251.9740986271
 20
26.8965386064
 10
251.7619930046
 20
26.1977201613
 10
251.514019348
 20
25.4976120089
 10
251.2315007043
 20
24.7999495291
 10
250.9159444324
 20
24.1084550531
 10
250.5690341617
 20
23.4268180032
 10
250.1926208087
 20
22.7586752079
 10
249.7887127013
 20
22.1075914981
 10
249.359464864
 20
21.4770406871
 10
248.9071675199
 20
20.8703870363
 10
248.434233871
 20
20.2908673055
 10
247.9431872229
 20
19.7415734831
 10
247.4366475219
 20
19.2254362893
 10
246.9173173765
 20
18.7452095394
 10
246.3879676377
 20
18.3034554509
 10
245.8514226154
 20
17.902530973
 10
245.3105450095
 20
17.5445752112
 10
244.768220636
 20
17.2314980144
 10
244.2273430301
 20
16.964969785
 10
243.6907980078
 20
16.7464125662
 10
243.161448269
 20
16.5769924555
 10
242.6421181236
 20
16.4576133825
 10
242.1355784226
 20
16.3889122861
 10
241.6445317745
 20
16.3712557164
 10
241.1715981255
 20
16.4047378789
 10
240.7193007815
 20
16.4891801318
 10
240.2900529442
 20
16.6241319391
 10
239.8861448368
 20
16.8088732744
 10
239.5097314837
 20
17.0424184629
 10
239.1628212131
 20
17.32352144
 10
239.1305279873
 20
17.3535310071
  0
LWPOLYLINE
  5
125
330
1F
100
AcDbEntity
  8
0
  6
Continuous
 62
     7
370
    25
100
AcDbPolyline
 90
       49
 70
   128
 43
0.0
 10
250.9482376582
 20
34.558459381
 10
251.2029262636
 20
34.4714503372
 10
251.606834371
 20
34.2867090018
 10
251.9832477241
 20
34.0531638133
 10
252.3301579948
 20
33.7720608363
 10
252.6457142666
 20
33.4448998767
 10
252.9282329104
 20
33.0734264799
 10
253.1762065669
 20
32.6596226172
 10
253.3883121895
 20
32.2056961111
 10
253.5634181027
 20
31.7140688561
 10
253.7005900408
 20
31.1873638962
 10
253.7990961322
 20
30.6283914303
 10
253.8584108043
 20
30.0401338184
 10
253.8782175876
 20
29.4257296693
 10
253.8584108043
 20
28.788457095
 10
253.7990961322
 20
28.1317162204
 10
253.7005900408
 20
27.4590110422
 10
253.5634181027
 20
26.7739307336
 10
253.3883121895
 20
26.0801304946
 10
253.1762065669
 20
25.3813120495
 10
252.9282329104
 20
24.681203897
 10
252.6457142666
 20
23.9835414173
 10
252.3301579948
 20
23.2920469413
 10
251.9832477241
 20
22.6104098914
 10
251.606834371
 20
21.942267096
 10
251.2029262636
 20
21.2911833862
 10
250.7736784264
 20
20.6606325753
 10
250.3213810823
 20
20.0539789245
 10
249.8484474334
 20
19.4744591937
 10
249.3574007853
 20
18.9251653713
 10
248.8508610842
 20
18.4090281775
 10
248.3315309388
 20
17.9288014276
 10
247.8021812
 20
17.4870473391
 10
247.2656361778
 20
17.0861228612
 10
246.7247585719
 20
16.7281670994
 10
246.1824341984
 20
16.4150899026
 10
245.6415565925
 20
16.1485616731
 10
245.1050115702
 20
15.9300044544
 10
244.5756618314
 20
15.7605843437
 10
244.056331686
 20
15.6412052706
 10
243.549791985
 20
15.5725041743
 10
243.0587453369
 20
15.5548476046
 10
242.5858116879
 20
15.5883297671
 10
242.1335143438
 20
15.67277202
 10
241.7042665066
 20
15.8077238272
 10
241.3003583992
 20
15.9924651626
 10
240.9239450461
 20
16.2260103511
 10
240.5770347755
 20
16.5071133282
 10
240.5447415496
 20
16.5371228952
  0
LWPOLYLINE
  5
126
330
1F
100
AcDbEntity
  8
0
  6
Continuous
 62
     7
370
    25
100
AcDbPolyline
 90
       49
 70
   128
 43
0.0
 10
252.3624512206
 20
33.7420512692
 10
252.617139826
 20
33.6550422254
 10
253.0210479334
 20
33.47030089
 10
253.3974612865
 20
33.2367557015
 10
253.7443715572
 20
32.9556527244
 10
254.059927829
 20
32.6284917649
 10
254.3424464728
 20
32.2570183681
 10
254.5904201293
 20
31.8432145053
 10
254.8025257518
 20
31.3892879993
 10
254.9776316651
 20
30.8976607443
 10
255.1148036032
 20
30.3709557844
 10
255.2133096946
 20
29.8119833185
 10
255.2726243667
 20
29.2237257066
 10
255.29243115
 20
28.6093215575
 10
255.2726243667
 20
27.9720489831
 10
255.2133096946
 20
27.3153081085
 10
255.1148036032
 20
26.6426029304
 10
254.9776316651
 20
25.9575226218
 10
254.8025257518
 20
25.2637223827
 10
254.5904201293
 20
24.5649039376
 10
254.3424464728
 20
23.8647957852
 10
254.059927829
 20
23.1671333054
 10
253.7443715572
 20
22.4756388295
 10
253.3974612865
 20
21.7940017795
 10
253.0210479334
 20
21.1258589842
 10
252.617139826
 20
20.4747752744
 10
252.1878919888
 20
19.8442244634
 10
251.7355946447
 20
19.2375708127
 10
251.2626609958
 20
18.6580510818
 10
250.7716143476
 20
18.1087572594
 10
250.2650746466
 20
17.5926200657
 10
249.7457445012
 20
17.1123933158
 10
249.2163947624
 20
16.6706392273
 10
248.6798497402
 20
16.2697147494
 10
248.1389721342
 20
15.9117589876
 10
247.5966477607
 20
15.5986817908
 10
247.0557701548
 20
15.3321535613
 10
246.5192251326
 20
15.1135963426
 10
245.9898753938
 20
14.9441762319
 10
245.4705452484
 20
14.8247971588
 10
244.9640055474
 20
14.7560960624
 10
244.4729588992
 20
14.7384394928
 10
244.0000252503
 20
14.7719216553
 10
243.5477279062
 20
14.8563639082
 10
243.118480069
 20
14.9913157154
 10
242.7145719616
 20
15.1760570508
 10
242.3381586085
 20
15.4096022393
 10
241.9912483378
 20
15.6907052163
 10
241.958955112
 20
15.7207147834
  0
LWPOLYLINE
  5
127
330
1F
100
AcDbEntity
  8
0
  6
Continuous
 62
     7
370
    25
100
AcDbPolyline
 90
       45
 70
   128
 43
0.0
 10
253.2588046501
 20
33.3350512142
 10
253.5388826427
 20
33.1551148903
 10
253.8857929134
 20
32.8740119133
 10
254.2013491852
 20
32.5468509537
 10
254.483867829
 20
32.1753775569
 10
254.7318414856
 20
31.7615736942
 10
254.9439471081
 20
31.3076471881
 10
255.1190530213
 20
30.8160199331
 10
255.2562249594
 20
30.2893149732
 10
255.3547310509
 20
29.7303425073
 10
255.4140457229
 20
29.1420848954
 10
255.4338525062
 20
28.5276807463
 10
255.4140457229
 20
27.890408172
 10
255.3547310509
 20
27.2336672973
 10
255.2562249594
 20
26.5609621192
 10
255.1190530213
 20
25.8758818106
 10
254.9439471081
 20
25.1820815716
 10
254.7318414856
 20
24.4832631264
 10
254.483867829
 20
23.783154974
 10
254.2013491852
 20
23.0854924943
 10
253.8857929134
 20
22.3939980183
 10
253.5388826427
 20
21.7123609684
 10
253.1624692896
 20
21.044218173
 10
252.7585611822
 20
20.3931344632
 10
252.329313345
 20
19.7625836523
 10
251.8770160009
 20
19.1559300015
 10
251.404082352
 20
18.5764102707
 10
250.9130357039
 20
18.0271164483
 10
250.4064960029
 20
17.5109792545
 10
249.8871658574
 20
17.0307525046
 10
249.3578161187
 20
16.5889984161
 10
248.8212710964
 20
16.1880739382
 10
248.2803934905
 20
15.8301181764
 10
247.738069117
 20
15.5170409796
 10
247.1971915111
 20
15.2505127501
 10
246.6606464888
 20
15.0319555314
 10
246.13129675
 20
14.8625354207
 10
245.6119666046
 20
14.7431563476
 10
245.1054269036
 20
14.6744552513
 10
244.6143802555
 20
14.6567986816
 10
244.1414466065
 20
14.6902808441
 10
243.6891492624
 20
14.774723097
 10
243.2599014252
 20
14.9096749042
 10
242.8559933178
 20
15.0944162396
 10
242.7596579574
 20
15.1480251042
  0
LINE
  5
128
330
1F
100
AcDbEntity
  8
0
  6
Continuous
 62
     7
370
    25
100
AcDbLine
 10
129.3323425481
 20
68.1462837307
 30
0.0
 11
129.3323425481
 21
67.9462837307
 31
0.0
  0
LINE
  5
129
330
1F
100
AcDbEntity
  8
0
  6
Continuous
 62
     7
370
    25
100
AcDbLine
 10
150.3323425481
 20
67.9462837307
 30
0.0
 11
150.3323425481
 21
68.1462837307
 31
0.0
  0
LINE
  5
12A
330
1F
100
AcDbEntity
  8
0
  6
Continuous
 62
     7
370
    25
100
AcDbLine
 10
129.3323425481
 20
67.9462837307
 30
0.0
 11
131.0643933556
 21
66.9462837307
 31
0.0
  0
LINE
  5
12B
330
1F
100
AcDbEntity
  8
0
  6
Continuous
 62
     7
370
    25
100
AcDbLine
 10
148.6002917405
 20
66.9462837307
 30
0.0
 11
150.3323425481
 21
67.9462837307
 31
0.0
  0
LINE
  5
12C
330
1F
100
AcDbEntity
  8
0
  6
Continuous
 62
     7
370
    25
100
AcDbLine
 10
150.3323425481
 20
65.9462837307
 30
0.0
 11
148.6002917405
 21
66.9462837307
 31
0.0
  0
LINE
  5
12D
330
1F
100
AcDbEntity
  8
0
  6
Continuous
 62
     7
370
    25
100
AcDbLine
 10
131.0643933556
 20
66.9462837307
 30
0.0
 11
129.3323425481
 21
65.9462837307
 31
0.0
  0
LINE
  5
12E
330
1F
100
AcDbEntity
  8
0
  6
Continuous
 62
     7
370
    25
100
AcDbLine
 10
129.3323425481
 20
65.9462837307
 30
0.0
 11
131.0643933556
 21
64.9462837307
 31
0.0
  0
LINE
  5
12F
330
1F
100
AcDbEntity
  8
0
  6
Continuous
 62
     7
370
    25
100
AcDbLine
 10
148.6002917405
 20
64.9462837307
 30
0.0
 11
150.3323425481
 21
65.9462837307
 31
0.0
  0
LINE
  5
130
330
1F
100
AcDbEntity
  8
0
  6
Continuous
 62
     7
370
    25
100
AcDbLine
 10
150.3323425481
 20
63.9462837307
 30
0.0
 11
148.6002917405
 21
64.9462837307
 31
0.0
  0
LINE
  5
131
330
1F
100
AcDbEntity
  8
0
  6
Continuous
 62
     7
370
    25
100
AcDbLine
 10
131.0643933556
 20
64.9462837307
 30
0.0
 11
129.3323425481
 21
63.9462837307
 31
0.0
  0
LINE
  5
132
330
1F
100
AcDbEntity
  8
0
  6
Continuous
 62
     7
370
    25
100
AcDbLine
 10
129.3323425481
 20
63.9462837307
 30
0.0
 11
131.0643933556
 21
62.9462837307
 31
0.0
  0
LINE
  5
133
330
1F
100
AcDbEntity
  8
0
  6
Continuous
 62
     7
370
    25
100
AcDbLine
 10
148.6002917405
 20
62.9462837307
 30
0.0
 11
150.3323425481
 21
63.9462837307
 31
0.0
  0
LINE
  5
134
330
1F
100
AcDbEntity
  8
0
  6
Continuous
 62
     7
370
    25
100
AcDbLine
 10
150.3323425481
 20
61.9462837307
 30
0.0
 11
148.6002917405
 21
62.9462837307
 31
0.0
  0
LINE
  5
135
330
1F
100
AcDbEntity
  8
0
  6
Continuous
 62
     7
370
    25
100
AcDbLine
 10
131.0643933556
 20
62.9462837307
 30
0.0
 11
129.3323425481
 21
61.9462837307
 31
0.0
  0
LINE
  5
136
330
1F
100
AcDbEntity
  8
0
  6
Continuous
 62
     7
370
    25
100
AcDbLine
 10
129.3323425481
 20
61.9462837307
 30
0.0
 11
129.3323425481
 21
50.1462837307
 31
0.0
  0
LINE
  5
137
330
1F
100
AcDbEntity
  8
0
  6
Continuous
 62
     7
370
    25
100
AcDbLine
 10
150.3323425481
 20
50.1462837307
 30
0.0
 11
150.3323425481
 21
61.9462837307
 31
0.0
  0
LINE
  5
138
330
1F
100
AcDbEntity
  8
0
  6
Continuous
 62
     7
370
    25
100
AcDbLine
 10
129.8323425481
 20
36.1462837307
 30
0.0
 11
129.8323425481
 21
2.6462837307
 31
0.0
  0
LINE
  5
139
330
1F
100
AcDbEntity
  8
0
  6
Continuous
 62
     7
370
    25
100
AcDbLine
 10
149.8323425481
 20
2.6462837307
 30
0.0
 11
149.8323425481
 21
36.1462837307
 31
0.0
  0
LINE
  5
13A
330
1F
100
AcDbEntity
  8
0
  6
Continuous
 62
     7
370
    25
100
AcDbLine
 10
155.8323425481
 20
36.1462837307
 30
0.0
 11
155.8323425481
 21
50.1462837307
 31
0.0
  0
LINE
  5
13B
330
1F
100
AcDbEntity
  8
0
  6
Continuous
 62
     7
370
    25
100
AcDbLine
 10
139.8323425481
 20
36.1462837307
 30
0.0
 11
155.8323425481
 21
36.1462837307
 31
0.0
  0
LINE
  5
13C
330
1F
100
AcDbEntity
  8
0
  6
Continuous
 62
     7
370
    25
100
AcDbLine
 10
139.8323425481
 20
36.1462837307
 30
0.0
 11
139.8323425481
 21
50.1462837307
 31
0.0
  0
LINE
  5
13D
330
1F
100
AcDbEntity
  8
0
  6
Continuous
 62
     7
370
    25
100
AcDbLine
 10
155.8323425481
 20
50.1462837307
 30
0.0
 11
139.8323425481
 21
50.1462837307
 31
0.0
  0
LINE
  5
13E
330
1F
100
AcDbEntity
  8
0
  6
Continuous
 62
     7
370
    25
100
AcDbLine
 10
123.8323425481
 20
36.1462837307
 30
0.0
 11
139.8323425481
 21
36.1462837307
 31
0.0
  0
LINE
  5
13F
330
1F
100
AcDbEntity
  8
0
  6
Continuous
 62
     7
370
    25
100
AcDbLine
 10
123.8323425481
 20
36.1462837307
 30
0.0
 11
123.8323425481
 21
50.1462837307
 31
0.0
  0
LINE
  5
140
330
1F
100
AcDbEntity
  8
0
  6
Continuous
 62
     7
370
    25
100
AcDbLine
 10
139.8323425481
 20
50.1462837307
 30
0.0
 11
123.8323425481
 21
50.1462837307
 31
0.0
  0
LINE
  5
141
330
1F
100
AcDbEntity
  8
0
  6
Continuous
 62
     7
370
    25
100
AcDbLine
 10
129.3323425481
 20
67.9462837307
 30
0.0
 11
150.3323425481
 21
67.9462837307
 31
0.0
  0
LINE
  5
142
330
1F
100
AcDbEntity
  8
0
  6
Continuous
 62
     7
370
    25
100
AcDbLine
 10
129.3323425481
 20
68.1462837307
 30
0.0
 11
150.3323425481
 21
68.1462837307
 31
0.0
  0
LINE
  5
143
330
1F
100
AcDbEntity
  8
0
  6
Continuous
 62
     7
370
    25
100
AcDbLine
 10
131.0643933556
 20
66.9462837307
 30
0.0
 11
148.6002917405
 21
66.9462837307
 31
0.0
  0
LINE
  5
144
330
1F
100
AcDbEntity
  8
0
  6
Continuous
 62
     7
370
    25
100
AcDbLine
 10
129.3323425481
 20
65.9462837307
 30
0.0
 11
150.3323425481
 21
65.9462837307
 31
0.0
  0
LINE
  5
145
330
1F
100
AcDbEntity
  8
0
  6
Continuous
 62
     7
370
    25
100
AcDbLine
 10
131.0643933556
 20
64.9462837307
 30
0.0
 11
148.6002917405
 21
64.9462837307
 31
0.0
  0
LINE
  5
146
330
1F
100
AcDbEntity
  8
0
  6
Continuous
 62
     7
370
    25
100
AcDbLine
 10
129.3323425481
 20
63.9462837307
 30
0.0
 11
150.3323425481
 21
63.9462837307
 31
0.0
  0
LINE
  5
147
330
1F
100
AcDbEntity
  8
0
  6
Continuous
 62
     7
370
    25
100
AcDbLine
 10
131.0643933556
 20
62.9462837307
 30
0.0
 11
148.6002917405
 21
62.9462837307
 31
0.0
  0
LINE
  5
148
330
1F
100
AcDbEntity
  8
0
  6
Continuous
 62
     7
370
    25
100
AcDbLine
 10
129.3323425481
 20
61.9462837307
 30
0.0
 11
150.3323425481
 21
61.9462837307
 31
0.0
  0
LINE
  5
149
330
1F
100
AcDbEntity
  8
0
  6
Continuous
 62
     7
370
    25
100
AcDbLine
 10
129.8323425481
 20
2.6462837307
 30
0.0
 11
149.8323425481
 21
2.6462837307
 31
0.0
  0
ENDSEC
  0
SECTION
  2
OBJECTS
  0
DICTIONARY
  5
C
330
0
100
AcDbDictionary
281
     1
  3
ACAD_GROUP
350
D
  3
ACAD_LAYOUT
350
1A
  3
ACAD_MLINESTYLE
350
17
  3
ACAD_PLOTSETTINGS
350
19
  3
ACAD_PLOTSTYLENAME
350
E
  3
ACAD_SCALELIST
350
47
  3
DWGPROPS
350
14A
  0
DICTIONARY
  5
D
102
{ACAD_REACTORS
330
C
102
}
330
C
100
AcDbDictionary
281
     1
  0
DICTIONARY
  5
1A
102
{ACAD_REACTORS
330
C
102
}
330
C
100
AcDbDictionary
281
     1
  3
Layout1
350
1E
  3
Layout2
350
26
  3
Model
350
22
  0
DICTIONARY
  5
17
102
{ACAD_REACTORS
330
C
102
}
330
C
100
AcDbDictionary
281
     1
  3
Standard
350
18
  0
DICTIONARY
  5
19
102
{ACAD_REACTORS
330
C
102
}
330
C
100
AcDbDictionary
281
     1
  0
ACDBDICTIONARYWDFLT
  5
E
102
{ACAD_REACTORS
330
C
102
}
330
C
100
AcDbDictionary
281
     1
  3
Normal
350
F
100
AcDbDictionaryWithDefault
340
F
  0
DICTIONARY
  5
47
102
{ACAD_REACTORS
330
C
102
}
330
C
100
AcDbDictionary
281
     1
  3
A0
350
48
  3
A1
350
49
  3
A2
350
4A
  3
A3
350
4B
  3
A4
350
4C
  3
A5
350
4D
  3
A6
350
4E
  3
A7
350
4F
  3
A8
350
50
  3
A9
350
51
  3
B0
350
52
  3
B1
350
53
  3
B2
350
54
  3
B3
350
55
  3
B4
350
56
  3
B5
350
57
  3
B6
350
58
  3
B7
350
59
  3
B8
350
5A
  3
B9
350
5B
  3
C0
350
5C
  3
C1
350
5D
  3
C2
350
5E
  3
C3
350
5F
  3
C4
350
60
  3
C5
350
61
  3
C6
350
62
  3
C7
350
63
  3
C8
350
64
  3
C9
350
65
  3
D0
350
66
  3
D1
350
67
  3
D2
350
68
  0
XRECORD
  5
14A
102
{ACAD_REACTORS
330
C
102
}
330
C
100
AcDbXrecord
280
     1
  1
DWGPROPS COOKIE
  2

  3

  4

  6

  7

  8
b.kav
  9

300
=
301
=
302
=
303
=
304
=
305
=
306
=
307
=
308
=
309
=
 40
0.0
 41
2459935.58416081
 42
2459935.584160995
  1

 90
        0
  0
LAYOUT
  5
1E
102
{ACAD_REACTORS
330
1A
102
}
330
1A
100
AcDbPlotSettings
  1

  2
none_device
  4

  6

 40
0.0
 41
0.0
 42
0.0
 43
0.0
 44
0.0
 45
0.0
 46
0.0
 47
0.0
 48
0.0
 49
0.0
140
0.0
141
0.0
142
1.0
143
1.0
 70
   688
 72
     1
 73
     0
 74
     5
  7

 75
    16
147
1.0
148
0.0
149
0.0
100
AcDbLayout
  1
Layout1
 70
     1
 71
     1
 10
0.0
 20
0.0
 11
420.0
 21
297.0
 12
0.0
 22
0.0
 32
0.0
 14
1.0000000000E+20
 24
1.0000000000E+20
 34
1.0000000000E+20
 15
-1.0000000000E+20
 25
-1.0000000000E+20
 35
-1.0000000000E+20
146
0.0
 13
0.0
 23
0.0
 33
0.0
 16
1.0
 26
0.0
 36
0.0
 17
0.0
 27
1.0
 37
0.0
 76
     0
330
1B
  0
LAYOUT
  5
26
102
{ACAD_REACTORS
330
1A
102
}
330
1A
100
AcDbPlotSettings
  1

  2
none_device
  4

  6

 40
0.0
 41
0.0
 42
0.0
 43
0.0
 44
0.0
 45
0.0
 46
0.0
 47
0.0
 48
0.0
 49
0.0
140
0.0
141
0.0
142
1.0
143
1.0
 70
   688
 72
     1
 73
     0
 74
     5
  7

 75
    16
147
1.0
148
0.0
149
0.0
100
AcDbLayout
  1
Layout2
 70
     1
 71
     2
 10
0.0
 20
0.0
 11
0.0
 21
0.0
 12
0.0
 22
0.0
 32
0.0
 14
0.0
 24
0.0
 34
0.0
 15
0.0
 25
0.0
 35
0.0
146
0.0
 13
0.0
 23
0.0
 33
0.0
 16
1.0
 26
0.0
 36
0.0
 17
0.0
 27
1.0
 37
0.0
 76
     0
330
23
  0
LAYOUT
  5
22
102
{ACAD_REACTORS
330
1A
102
}
330
1A
100
AcDbPlotSettings
  1

  2
none_device
  4
Letter_(8.50_x_11.00_Inches)
  6

 40
6.35
 41
6.35
 42
6.35000508
 43
6.35000508
 44
215.9
 45
279.4
 46
0.0
 47
0.0
 48
0.0
 49
0.0
140
0.0
141
0.0
142
1.0
143
1.0
 70
  1712
 72
     1
 73
     0
 74
     0
  7

 75
     0
147
1.0
148
0.0
149
0.0
100
AcDbLayout
  1
Model
 70
     1
 71
     0
 10
0.0
 20
0.0
 11
279.4
 21
215.9
 12
0.0
 22
0.0
 32
0.0
 14
0.0
 24
0.0
 34
0.0
 15
279.4
 25
215.9
 35
0.0
146
0.0
 13
0.0
 23
0.0
 33
0.0
 16
1.0
 26
0.0
 36
0.0
 17
0.0
 27
1.0
 37
0.0
 76
     0
330
1F
331
29
  0
MLINESTYLE
  5
18
102
{ACAD_REACTORS
330
17
102
}
330
17
100
AcDbMlineStyle
  2
Standard
 70
     0
  3

 62
   256
 51
90.0
 52
90.0
 71
     2
 49
0.5
 62
   256
  6
BYLAYER
 49
-0.5
 62
   256
  6
BYLAYER
  0
ACDBPLACEHOLDER
  5
F
102
{ACAD_REACTORS
330
E
102
}
330
E
  0
SCALE
  5
48
102
{ACAD_REACTORS
330
47
102
}
330
47
100
AcDbScale
 70
     0
300
1:1
140
1.0
141
1.0
290
     1
  0
SCALE
  5
49
102
{ACAD_REACTORS
330
47
102
}
330
47
100
AcDbScale
 70
     0
300
1:2
140
1.0
141
2.0
290
     0
  0
SCALE
  5
4A
102
{ACAD_REACTORS
330
47
102
}
330
47
100
AcDbScale
 70
     0
300
1:4
140
1.0
141
4.0
290
     0
  0
SCALE
  5
4B
102
{ACAD_REACTORS
330
47
102
}
330
47
100
AcDbScale
 70
     0
300
1:5
140
1.0
141
5.0
290
     0
  0
SCALE
  5
4C
102
{ACAD_REACTORS
330
47
102
}
330
47
100
AcDbScale
 70
     0
300
1:8
140
1.0
141
8.0
290
     0
  0
SCALE
  5
4D
102
{ACAD_REACTORS
330
47
102
}
330
47
100
AcDbScale
 70
     0
300
1:10
140
1.0
141
10.0
290
     0
  0
SCALE
  5
4E
102
{ACAD_REACTORS
330
47
102
}
330
47
100
AcDbScale
 70
     0
300
1:16
140
1.0
141
16.0
290
     0
  0
SCALE
  5
4F
102
{ACAD_REACTORS
330
47
102
}
330
47
100
AcDbScale
 70
     0
300
1:20
140
1.0
141
20.0
290
     0
  0
SCALE
  5
50
102
{ACAD_REACTORS
330
47
102
}
330
47
100
AcDbScale
 70
     0
300
1:30
140
1.0
141
30.0
290
     0
  0
SCALE
  5
51
102
{ACAD_REACTORS
330
47
102
}
330
47
100
AcDbScale
 70
     0
300
1:40
140
1.0
141
40.0
290
     0
  0
SCALE
  5
52
102
{ACAD_REACTORS
330
47
102
}
330
47
100
AcDbScale
 70
     0
300
1:50
140
1.0
141
50.0
290
     0
  0
SCALE
  5
53
102
{ACAD_REACTORS
330
47
102
}
330
47
100
AcDbScale
 70
     0
300
1:100
140
1.0
141
100.0
290
     0
  0
SCALE
  5
54
102
{ACAD_REACTORS
330
47
102
}
330
47
100
AcDbScale
 70
     0
300
2:1
140
2.0
141
1.0
290
     0
  0
SCALE
  5
55
102
{ACAD_REACTORS
330
47
102
}
330
47
100
AcDbScale
 70
     0
300
4:1
140
4.0
141
1.0
290
     0
  0
SCALE
  5
56
102
{ACAD_REACTORS
330
47
102
}
330
47
100
AcDbScale
 70
     0
300
8:1
140
8.0
141
1.0
290
     0
  0
SCALE
  5
57
102
{ACAD_REACTORS
330
47
102
}
330
47
100
AcDbScale
 70
     0
300
10:1
140
10.0
141
1.0
290
     0
  0
SCALE
  5
58
102
{ACAD_REACTORS
330
47
102
}
330
47
100
AcDbScale
 70
     0
300
100:1
140
100.0
141
1.0
290
     0
  0
SCALE
  5
59
102
{ACAD_REACTORS
330
47
102
}
330
47
100
AcDbScale
 70
     0
300
1/128" = 1'-0"
140
0.0078125
141
12.0
290
     0
  0
SCALE
  5
5A
102
{ACAD_REACTORS
330
47
102
}
330
47
100
AcDbScale
 70
     0
300
1/64" = 1'-0"
140
0.015625
141
12.0
290
     0
  0
SCALE
  5
5B
102
{ACAD_REACTORS
330
47
102
}
330
47
100
AcDbScale
 70
     0
300
1/32" = 1'-0"
140
0.03125
141
12.0
290
     0
  0
SCALE
  5
5C
102
{ACAD_REACTORS
330
47
102
}
330
47
100
AcDbScale
 70
     0
300
1/16" = 1'-0"
140
0.0625
141
12.0
290
     0
  0
SCALE
  5
5D
102
{ACAD_REACTORS
330
47
102
}
330
47
100
AcDbScale
 70
     0
300
3/32" = 1'-0"
140
0.09375
141
12.0
290
     0
  0
SCALE
  5
5E
102
{ACAD_REACTORS
330
47
102
}
330
47
100
AcDbScale
 70
     0
300
1/8" = 1'-0"
140
0.125
141
12.0
290
     0
  0
SCALE
  5
5F
102
{ACAD_REACTORS
330
47
102
}
330
47
100
AcDbScale
 70
     0
300
3/16" = 1'-0"
140
0.1875
141
12.0
290
     0
  0
SCALE
  5
60
102
{ACAD_REACTORS
330
47
102
}
330
47
100
AcDbScale
 70
     0
300
1/4" = 1'-0"
140
0.25
141
12.0
290
     0
  0
SCALE
  5
61
102
{ACAD_REACTORS
330
47
102
}
330
47
100
AcDbScale
 70
     0
300
3/8" = 1'-0"
140
0.375
141
12.0
290
     0
  0
SCALE
  5
62
102
{ACAD_REACTORS
330
47
102
}
330
47
100
AcDbScale
 70
     0
300
1/2" = 1'-0"
140
0.5
141
12.0
290
     0
  0
SCALE
  5
63
102
{ACAD_REACTORS
330
47
102
}
330
47
100
AcDbScale
 70
     0
300
3/4" = 1'-0"
140
0.75
141
12.0
290
     0
  0
SCALE
  5
64
102
{ACAD_REACTORS
330
47
102
}
330
47
100
AcDbScale
 70
     0
300
1" = 1'-0"
140
1.0
141
12.0
290
     0
  0
SCALE
  5
65
102
{ACAD_REACTORS
330
47
102
}
330
47
100
AcDbScale
 70
     0
300
1-1/2" = 1'-0"
140
1.5
141
12.0
290
     0
  0
SCALE
  5
66
102
{ACAD_REACTORS
330
47
102
}
330
47
100
AcDbScale
 70
     0
300
3" = 1'-0"
140
3.0
141
12.0
290
     0
  0
SCALE
  5
67
102
{ACAD_REACTORS
330
47
102
}
330
47
100
AcDbScale
 70
     0
300
6" = 1'-0"
140
6.0
141
12.0
290
     0
  0
SCALE
  5
68
102
{ACAD_REACTORS
330
47
102
}
330
47
100
AcDbScale
 70
     0
300
1'-0" = 1'-0"
140
12.0
141
12.0
290
     0
  0
ENDSEC
  0
EOF
